melody 1

(/) Slide Up  (\) Slide Down  (h) Hammer On  (p) Pull Off  (b) Bend (r) Release (v) Vibrato


E|--------------------------
B|--------------------------
G|--------5--5--5--4--------
D|--7--7--------------5--7--
A|--------------------------
E|--------------------------



E|-----------------------
B|-----------------------
G|-----------5--5--------
D|--5--5--7-----------5--
A|-----------------8-----
E|-----------------------



E|-----7--8--10--12--
B|--5----------------
G|-------------------
D|-------------------
A|-------------------
E|-------------------
http://www.guitartabcreator.com
Guitar Tab Creator is intended to store guitar tab created through the tool. It currently does not support in-line text editing. Any text you place in here will be lost. If you need to comment on your tab, please use the "Tab Notes" section located below.