First solo

(/) Slide Up  (\) Slide Down  (h) Hammer On  (p) Pull Off  (b) Bend (r) Release (v) Vibrato

E|-----------------------------------------------8--5--8-----------------------5----------5-----------------
B|----------------------------------------5v--8-----------5--6v-------------5----------5-----8--5--8--------
G|-------------------------------------5-------------------------7--5--7b9--------7b9-----------------5--7--
D|-------------------------------5--7-----------------------------------------------------------------------
A|--7v--5-----------7--8v--7--5-----------------------------------------------------------------------------
E|---------8--5--8------------------------------------------------------------------------------------------



E|-------------------------------------------------------10--8--5-----5-----------------------------
B|------------------------------------------------10--8------------8-----5--------------------------
G|--5--7b9--5-----5--7b9--5-----5-----------7--9----------------------------7--5-----7--5-----------
D|-------------7-------------7-----5--7h10----------------------------------------7--------7--5-----
A|-----------------------------------------------------------------------------------------------8--
E|--------------------------------------------------------------------------------------------------



E|----------------------------------------------
B|----------------------------------------------
G|--------5v--2---------------------------------
D|--5--7---------5--2--------------5------------
A|---------------------3--5--5--7-----7---5-----
E|-------------------------------------------8--
http://www.guitartabcreator.com
Guitar Tab Creator is intended to store guitar tab created through the tool. It currently does not support in-line text editing. Any text you place in here will be lost. If you need to comment on your tab, please use the "Tab Notes" section located below.