metal

(/) Slide Up  (\) Slide Down  (h) Hammer On  (p) Pull Off  (b) Bend (r) Release (v) Vibrato

E|------------------------------------------------------------
B|------------------------------------------------------------
G|------------------------------------------------------------
D|------------------------------------------------------------
A|--------------5----------------------------7----------------
E|--0--0--0--0--3--0--0--0--0--3b0--0--0--0--5--0--0--0--0--5b



E|------------------------------------------------------------
B|------------------------------------------------------------
G|------------------------------------------------------------
D|------------------------------------------------------------
A|--------------5----------------------------7----------------
E|--0--0--0--0--3--0--0--0--0--5b0--0--0--0--5--0--0--0--0--7b



E|--------------------
B|--------------------
G|--------------------
D|--------------------
A|--------3--4--5-----
E|--3--6--------------
http://www.guitartabcreator.com
Guitar Tab Creator is intended to store guitar tab created through the tool. It currently does not support in-line text editing. Any text you place in here will be lost. If you need to comment on your tab, please use the "Tab Notes" section located below.