both of me part 2

(/) Slide Up  (\) Slide Down  (h) Hammer On  (p) Pull Off  (b) Bend (r) Release (v) Vibrato


E|--------------------------------------------------------------------------
B|--------------------------------------------------------------------------
G|--------------------------------------------------------------------------
D|--------6--6--------------6--6--------------6--6--------------6--6--------
A|-----9--------9--------9--------9--------9--------9--------9--------9-----
E|--7--------------7--7--------------7--7--------------7--7--------------7--



E|--------------------------------------------------------------------------
B|--------------------------------------------------------------------------
G|--------8--8--------------8--8--------------8--8--------------8--8--------
D|-----7--------7--------7--------7--------7--------7--------7--------7-----
A|--9--------------9--9--------------9--9--------------9--9--------------9--
E|--------------------------------------------------------------------------
http://www.guitartabcreator.com
Guitar Tab Creator is intended to store guitar tab created through the tool. It currently does not support in-line text editing. Any text you place in here will be lost. If you need to comment on your tab, please use the "Tab Notes" section located below.