Pepperland (No Mundo dos Sonhos)

(/) Slide Up  (\) Slide Down  (h) Hammer On  (p) Pull Off  (b) Bend (r) Release (v) Vibrato

E|------------7-------------------------------------
B|-----8--------------------------------------------
G|--9------------7--9------4--5--7------------4--9--
D|--------------------------------------------------
A|--------------------------------------------------
E|--------------------------------------------------



E|------------7--10--5-------------7--
B|-----8--------------------7r5/3-----
G|--9---------------------------------
D|------------------------------------
A|------------------------------------
E|------------------------------------



E|------------7-----------------------------------
B|-----8------------------------------------------
G|--9------------7--9------4--5--7--------\11--7--
D|------------------------------------------------
A|------------------------------------------------
E|------------------------------------------------



E|------------7--10--5-------------7--
B|---------8----------------7r5/3-----
G|------9-----------------------------
D|--10--------------------------------
A|------------------------------------
E|------------------------------------



E|------------7----------------------------------
B|-----8-----------------------------------------
G|--9------------7--9------4--5--7------4--9-----
D|-----------------------------------------------
A|-----------------------------------------------
E|-----------------------------------------------



E|------------7--10--5-----------5--9--12--7----------------7--10--5-------------3--
B|-----8----------------------7----------------------8--------------------7r5/3-----
G|--9---------------------------------------------9---------------------------------
D|----------------------------------------------------------------------------------
A|----------------------------------------------------------------------------------
E|----------------------------------------------------------------------------------



E|------------7---------------------------------
B|-----8----------------------------------------
G|--9------------7--9--------4--5--7------4--9--
D|----------------------------------------------
A|----------------------------------------------
E|----------------------------------------------



E|------------7--10--5---------5--9--12--7----------------7--10--5-------------3--
B|-----8--------------------7----------------------8--------------------7r5/3-----
G|--9-------------------------------------------9---------------------------------
D|--------------------------------------------------------------------------------
A|--------------------------------------------------------------------------------
E|--------------------------------------------------------------------------------



E|--------3\15----------3\15----------
B|------------------------------------
G|------------------------------------
D|------------------------------------
A|------------------------------------
E|------------------------------------
http://www.guitartabcreator.com
Guitar Tab Creator is intended to store guitar tab created through the tool. It currently does not support in-line text editing. Any text you place in here will be lost. If you need to comment on your tab, please use the "Tab Notes" section located below.