Dead Batteries

(/) Slide Up  (\) Slide Down  (h) Hammer On  (p) Pull Off  (b) Bend (r) Release (v) Vibrato


E|-----------------------------------------------------------------------------------
B|-----10--------------------10-----8-----------8------------------------------------
G|----------------------------------------9-----------9-----7------------7-----------
D|----------------------------------------------------------------10-----------7-----
A|-----------------------------------------------------------------------------------
E|-----------------------------------------------------------------------------------



E|------------------------------------------8-------------------------------------
B|-----------------------------8-----10-----------10------------------------------
G|-----7-----8-----7-----8--------------------------------------------------------
D|--------------------------------------------------------------------------------
A|--------------------------------------------------------------------------------
E|--------------------------------------------------------------------------------



E|-------------------------------------------------------------
B|-----10-----8-----------8------------------------------------
G|------------------9-----------9-----7------------7-----------
D|------------------------------------------10-----------7-----
A|-------------------------------------------------------------
E|-------------------------------------------------------------



E|---------------------------10b11b10--8------------------
B|----------------10--8--10---------------10--8-----------
G|--9--12--9--12---------------------------------9--7--9--
D|--------------------------------------------------------
A|--------------------------------------------------------
E|--------------------------------------------------------



E|--------------------------------------------
B|-------10-----------------------------------
G|---9--------9---------7---------------------
D|--------------------------10---9---10---7---
A|--------------------------------------------
E|--------------------------------------------



E|---------------------------------------------------------
B|-----------------10--------------------------------------
G|---9---------9--------9------------7-----------------9---
D|---------------------------------------10---9---10-------
A|---------------------------------------------------------
E|---------------------------------------------------------



E|------------------------------------------------------
B|-----------------10-----------------------------------
G|---9---------9--------9---------7---------------------
D|------------------------------------10---9---10---7---
A|------------------------------------------------------
E|------------------------------------------------------



E|--------------------------------------------------------
B|--------------------------------------------------------
G|------------7--5--7--5--7--5------7--5--7--5--7--9------
D|--7--9--10----------------------------------------------
A|--------------------------------------------------------
E|--------------------------------------------------------



E|--------------------------------------------
B|-------10-----------------------------------
G|---9--------9---------7-----------------9---
D|--------------------------10---9---10-------
A|--------------------------------------------
E|--------------------------------------------



E|-----------------------------
B|----------------------8--10--
G|------------7--9--10---------
D|--7--9--10-------------------
A|-----------------------------
E|-----------------------------



E|---12---10---8---8--------12------------10---8---10---7-------------
B|---------------------10-----------------------------------8---------
G|--------------------------------------------------------------------
D|--------------------------------------------------------------------
A|--------------------------------------------------------------------
E|--------------------------------------------------------------------



E|---7------------7---10------13---12---10---12------10------8---7---
B|-------10---9------------------------------------------------------
G|-------------------------------------------------------------------
D|-------------------------------------------------------------------
A|-------------------------------------------------------------------
E|-------------------------------------------------------------------
http://www.guitartabcreator.com
Guitar Tab Creator is intended to store guitar tab created through the tool. It currently does not support in-line text editing. Any text you place in here will be lost. If you need to comment on your tab, please use the "Tab Notes" section located below.