Winter Wrap Up Rock Cover

(/) Slide Up  (\) Slide Down  (h) Hammer On  (p) Pull Off  (b) Bend (r) Release (v) Vibrato


E|-----------------------------------------------------------------------------
B|-----------------------------------------------------------------------------
G|------------------------------------------------------------------13--13-----
D|--9/11--11------11--11------------11------11--11------13--13------13--13-----
A|--------11------11--11------------11------11--11------13--13------11--11-----
E|--------9-------9---9-----13--11--9-------9---9-------11--11-----------------



E|-------------------------------------------------------------------------------------------
B|-------------------------------------------------------------------------------------------
G|-------------------------------------------------------------------------------------------
D|-------------------------------------------------------------------------------------------
A|-3-3-3-3-3-5-5-5-5-5-7-7-7-7-7-8-8-8-8-8-12-12-12-12-12-10-10-10-10-10-7-7-7-7-7-8-8-8-8-8-
E|-------------------------------------------------------------------------------------------



E|-----------------------------------------------------------------------------------------
B|-----------------------------------------------------------------------------------------
G|-----------------------------------------------------------------------------------------
D|-5-5-5-5-5-7-7-7-7-9-9-9-9-9-10-10-10-10-10-14-14-14-14-14-16-16-16-16-16-17-17-17-17-17-
A|-3-3-3-3-3-5-5-5-5-7-7-7-7-7-8--8--8--8--8--12-12-12-12-12-14-14-14-14-14-15-15-15-15-15-
E|-----------------------------------------------------------------------------------------



E|----------------------------------------------------------------------------------------------------
B|----------------------------------------------------------------------------------------------------
G|-------------------------12-------------------2-0---0-0-0---0-------------------2-0---0-0-0---0-2-0-
D|-12-12-12-12-12-12-12-12-12-----------2---3-3-------------2---2-0-------2---3-3-------------2-------
A|-10-10-10-10-10-10-10-10-10-------3-3---3-------------------------3-3-3---3-------------------------
E|----------------------------------------------------------------------------------------------------



E|------------------------------------------------------------------------------------------
B|------------------------------------------------------------------------------------------
G|-------------2-0---0-0-0---0-2-0---0-0-0---0-----12-12-12----12-14--12--------------------
D|-----2---3-3-------------2---------------2---2------------14---------------12-14-15-14----
A|-3-3---3---------------------------------------3------------------------15-------------15-
E|------------------------------------------------------------------------------------------



E|------------------------------------------------------------
B|------------------------------------------------------------
G|-------12-12-12----12-----12--------------------------------
D|-14-15----------14-----14-----------12-12-14-14-15-14-------
A|------------------------------15-15--------------------15---
E|------------------------------------------------------------



E|--------------------------------------------------------------------------------------------
B|--------------------------------------------------------------------------------------------
G|-----------------------------------------12-12-----------------------------------12-12-12---
D|----12-14-12----12-14-14-----15-14-15-14------------12-14-12----12-14-14------14------------
A|-15----------15----------15----------------------15----------15----------15-----------------
E|--------------------------------------------------------------------------------------------



E|-------------------------------------------------------------------------------
B|-------------------------------------------------------------------------------
G|-14---12-----------------2-0---0-0-0---0-------------------2-0---0-0-0---0-2-0-
D|-----------------2---3-3-------------2---2-0-------2---3-3-------------2-------
A|-------------3-3---3-------------------------3-3-3---3-------------------------
E|-------------------------------------------------------------------------------



E|--------------------------------------------------------------------
B|---------------------------------------------------------------0--1-
G|-------------2-0---0-0-0---0-2--0---0-0-0---0--------0-0-0---0------
D|-----2---3-3-------------2----------------2---2--0---------2--------
A|-3-3---3------------------------------------------------------------
E|--------------------------------------------------------------------



E|----------------------------------------------------------------
B|----------------------------------------------------------------
G|-5-5-5-5-7-7-7-7-7-9-9-9-9-10-10-10-10-10-14------12-----10-----
D|-5-5-5-5-7-7-7-7-7-9-9-9-9-10-10-10-10-10-14------12-----10-----
A|-3-3-3-3-5-5-5-5-5-7-7-7-7-8--8--8--8--8--12------10-----8------
E|----------------------------------------------------------------
http://www.guitartabcreator.com
Guitar Tab Creator is intended to store guitar tab created through the tool. It currently does not support in-line text editing. Any text you place in here will be lost. If you need to comment on your tab, please use the "Tab Notes" section located below.