Run It By Me

(/) Slide Up  (\) Slide Down  (h) Hammer On  (p) Pull Off  (b) Bend (r) Release (v) Vibrato


E|-----------------------------------------------------------------------------------------------------
B|-----------------------------------------------------------------------------------------------------
G|-----------------------------------------------------------------------------------------------------
D|-----------------------------------------------------------------------------------------------------
A|-----------------------------------------------------------------------------------------------------
E|--0--12--12--11--12--0--3--3--2--3--0--12--12--11--12--0--3--2--3--0--12--12--11--12--0--3--3--2--3--



E|----------------------------------------------------------------------------------------------
B|----------------------------------------------------------------------------------------------
G|----------------------------------------------------------------------------------------------
D|----------------------------------------------------------------------------------------------
A|----------------------------------------------------------------------------------------------
E|--0--12--12--11--12--0--3--3--2--3--0--12--12--11--12--0--3--2--3--0--12--12--12--11--11--12--



E|------------------------------------------
B|------------------------------------------
G|------------------------------------------
D|------------------------------------------
A|--17--17--17--17--17--17--17--14--14--14--
E|--15--15--15--15--15--15--15--12--12--12--
http://www.guitartabcreator.com
Guitar Tab Creator is intended to store guitar tab created through the tool. It currently does not support in-line text editing. Any text you place in here will be lost. If you need to comment on your tab, please use the "Tab Notes" section located below.