zac brown style song

(/) Slide Up  (\) Slide Down  (h) Hammer On  (p) Pull Off  (b) Bend (r) Release (v) Vibrato


E|------------------------------------------------------3--3--3--3--3--3--2--2--0--
B|------------------------------------------------------3--3--3--3--3--3--3--3--0--
G|--2/4--4--2p0--2p0------------------------------------0--0--0--0--0--0--2--2--2--
D|-------------------------0-------0-------0--2p0--2p0--0--0--0--0--0--0--0--0--2--
A|--------------------0h2-----0h2-----0h2---------------2--2--2--2--2--2--------0--
E|------------------------------------------------------3--3--3--3--3--3-----------



E|-------------------------3-------3-------3--5p3--5p3--3--3--3--3--3--3--2--2--0--
B|--------------------3/5-----3/5-----3/5---------------3--3--3--3--3--3--3--3--2--
G|--2/4--4--2p0--2p0------------------------------------0--0--0--0--0--0--2--2--2--
D|------------------------------------------------------0--0--0--0--0--0--0--0--2--
A|------------------------------------------------------2--2--2--2--2--2--------0--
E|------------------------------------------------------3--3--3--3--3--3-----------
http://www.guitartabcreator.com
Guitar Tab Creator is intended to store guitar tab created through the tool. It currently does not support in-line text editing. Any text you place in here will be lost. If you need to comment on your tab, please use the "Tab Notes" section located below.