New Song

(/) Slide Up  (\) Slide Down  (h) Hammer On  (p) Pull Off  (b) Bend (r) Release (v) Vibrato


E|-----0------------0------------0---------0--0--0--0--0--
B|--------0h1p0--------0h1p0--------0h1p0--3--3--3--3--1--
G|----------------------------0------------0--0--0--0--0--
D|---------------2-------------------------2--2--2--2--2--
A|--3--------------------------------------3--3--3--3--3--
E|--------------------------------------------------------



E|-----------------3-3-3-3-3-x-x-x-x-x-
B|-----------------3-3-3-3-3-x-x-x-x-x-
G|-----------------0-0-0-0-0-x-x-x-x-x-
D|-2-2-2-2-2-2-2-2-0-0-0-0-0-x-x-x-x-x-
A|-2-2-2-2-2-2-2-2-2-2-2-2-2-x-x-x-x-x-
E|-0-0-0-0-0-0-0-0-3-3-3-3-3-x-x-x-x-x-



E|-0-0-x-x-3-3-x-x-1-1-x-x---
B|-1-1-x-x-3-3-x-x-1-1-x-x---
G|-0-0-x-x-0-0-x-x-2-2-x-x-2-
D|-2-2-x-x-0-0-x-x-3-3-x-x-2-
A|-3-3-x-x-2-2-x-x-3-3-x-x-0-
E|---------3-3-x-x-1-1-x-x---
http://www.guitartabcreator.com
Guitar Tab Creator is intended to store guitar tab created through the tool. It currently does not support in-line text editing. Any text you place in here will be lost. If you need to comment on your tab, please use the "Tab Notes" section located below.