Anthonys Strange Intro

(/) Slide Up  (\) Slide Down  (h) Hammer On  (p) Pull Off  (b) Bend (r) Release (v) Vibrato


E|-----------------------0--------|-----------------------0--------|--------------------0-------|-----
B|--------------0-----------0-----|--------------0-----------0-----|-----------0----------------|-----
G|--------5--------5-----------5--|--------5--------5-----------5--|--------5-----5--------5/7--|-----
D|-----7-----7--------7-----------|-----7-----7--------7-----------|-----7-----------7----------|-----
A|--0-----------------------------|--------------------------------|----------------------------|-----
E|--------------------------------|--7-----------------------------|--8-------------------------|-----



E|--0------------------------------|--0--------------------------|--0--
B|--0------------------------------|--0--------------------------|--0--
G|--5------------------------------|--5--------------------------|--5--
D|--7------------------------------|--7--------------------------|--7--
A|--0------------------------------|-----------------------------|-----
E|--0------------------------------|--7--------------------------|--8--
http://www.guitartabcreator.com
Guitar Tab Creator is intended to store guitar tab created through the tool. It currently does not support in-line text editing. Any text you place in here will be lost. If you need to comment on your tab, please use the "Tab Notes" section located below.