Arctic Monkeys MB 2

(/) Slide Up  (\) Slide Down  (h) Hammer On  (p) Pull Off  (b) Bend (r) Release (v) Vibrato
E|-7-7-7-7-7-7-7-7-7---------------------------------------------------------------------------
B|-------------------9-7-----------------7-7-5-7-5-----5-7-7-5-7-5-----5-------------------5-7-
G|-----------------------9-7-----------------------7-7-------------7-7---6-7-7-6-4-2-7-7-7-----
D|---------------------------9-7-9-7-----------------------------------------------------------
A|-----------------------------------9-7-------------------------------------------------------
E|---------------------------------------------------------------------------------------------



E|-------------------------------------------------------
B|-7-7-5-7-5-----5-7-7-5-7-5-----5-----------------------
G|-----------7-7-------------7-7---6-7-7-6-4-7-7-7-7-9-7-
D|-------------------------------------------------------
A|-------------------------------------------------------
E|-------------------------------------------------------



E|--------------------------
B|--7--11--12--10--8--------
G|--7--11--12--11--9--6--6--
D|--7--11--12--11--9--7--7--
A|--------------------7--7--
E|--5--9---10--9---7--5--5--



E|--------10--10--9---------------
B|--------10--10--10--------------
G|--4--6--11--11------8--8--4--6--
D|--5--7--------------9--9--5--7--
A|--5--7--------------9--9--5--7--
E|--3--5--------------7--7--3--5--



E|--------------------------
B|--7--11--12--10--8--------
G|--7--11--12--11--9--6--6--
D|--7--11--12--11--9--7--7--
A|--------------------7--7--
E|--5--9---10--9---7--5--5--



E|--------10--10--9---------------10--10--9---------------
B|--------10--10--10--------------10--10--10--------------
G|--4--6--11--11------8--8--4--6--11--11------8--8--4--6--
D|--5--7--------------9--9--5--7--------------9--9--5--7--
A|--5--7--------------9--9--5--7--------------9--9--5--7--
E|--3--5--------------7--7--3--5--------------7--7--3--5--



E|--------------------------------------------------
B|--------------------------------------------------
G|--3--3--3--3--3--3--3--3--4--4--4--4--4--4--4--4--
D|--4--4--4--4--4--4--4--4--5--5--5--5--5--5--5--5--
A|--4--4--4--4--4--4--4--4--5--5--5--5--5--5--5--5--
E|--2--2--2--2--2--2--2--2--3--3--3--3--3--3--3--3--



E|-----------
B|-----------
G|--3--4--6--
D|--4--5--7--
A|--4--5--7--
E|--2--3--5--
http://www.guitartabcreator.com
Guitar Tab Creator is intended to store guitar tab created through the tool. It currently does not support in-line text editing. Any text you place in here will be lost. If you need to comment on your tab, please use the "Tab Notes" section located below.