Jiyuu no Tsubasa

(/) Slide Up  (\) Slide Down  (h) Hammer On  (p) Pull Off  (b) Bend (r) Release (v) Vibrato

E|-----------------------------------|---------------------------|---
B|-----------------------------------|---------------------------|---
G|---5---4---2---------------5---4---|---5---4---3---2-----------|---
D|---5---5---2---5---3---4---5---5---|---5---5---5---2---3---5---|---
A|---3---2---0---5---3---5---5---5---|---3---2---1---0---3---5---|---
E|---------------3---1---2---3---3---|-------------------1---3---|---



E|-----12p0-12p0-12p0-17p0-19p0-17p0-12p0-17p0-19p0-17p0-12p0-17p0-19p0-17p0-12p0-|-|-
B|--------------------------------------------------------------------------------|-|-
G|--------------------------------------------------------------------------------|-|-
D|--------------------------------------------------------------------------------|-|-
A|--------------------------------------------------------------------------------|-|-
E|--------------------------------------------------------------------------------|-|-
http://www.guitartabcreator.com
Guitar Tab Creator is intended to store guitar tab created through the tool. It currently does not support in-line text editing. Any text you place in here will be lost. If you need to comment on your tab, please use the "Tab Notes" section located below.