The Surf Coasters- Breakout

(/) Slide Up  (\) Slide Down  (h) Hammer On  (p) Pull Off  (b) Bend (r) Release (v) Vibrato


E|--0--------------------0--------------------
B|--8--------------------6--8-----------------
G|--7--------------------5--7-----------------
D|--0--0--0--0--0--0--0--0--0--0--0--0--0--0--
A|--------------------------------------------
E|--------------------------------------------

Melody

E|-----------5-------------------------5----------8------------
B|-----5--6-----8----------5-----5--6-----6-------------5h6p5--
G|--7----------------5--7-----7----------------5-----5---------
D|-------------------------------------------------------------
A|-------------------------------------------------------------
E|-------------------------------------------------------------



E|-----------5-------------------------------------
B|-----5--6-----8----------5--6--5-----5--5--------
G|--7----------------5--7-----------5--------7-----
D|----------------------------------------------8--
A|-------------------------------------------------
E|-------------------------------------------------

Rock riff

E|--------------------------------------------
B|--------------------------------------------
G|--------------------------------------------
D|--------------------------------------5-----
A|--------5-----5-----------3-----3-----5-----
E|--3--3-----3-----3--0--0-----0-----3--3--6--

First time ending

E|-------8----------10------
B|----------8-----------10--
G|--3/5--------5/7----------
D|--------------------------
A|--------------------------
E|--------------------------

Second time ending

E|------------------------------------------------
B|--5--3h4p3-----------3--4--5-----5--6--8--6--5--
G|------------3-----3-----------5-----------------
D|---------------5--------------------------------
A|------------------------------------------------
E|------------------------------------------------

Guitar solo

E|-----------------3--3--3--0--
B|--3-----------3-----3--4--6--
G|-----------2--------3--5--7--
D|--------0-----------5--5--7--
A|-----0--------------5--3--5--
E|--------------------3--------



E|---------------------------------------------------------------------------------------8--8--8------8--
B|-----------6--------------------------------------6-----------6--8--8--10--10--10--10-----------10-----
G|--5--7--------7--7--5--5--7--------7-----5--7--7-----7--7--7-------------------------------------------
D|--------7--------------------7--------7----------------------------------------------------------------
A|--------------------------------5----------------------------------------------------------------------
E|-------------------------------------------------------------------------------------------------------



E|----------------------------------------------8--------------------8--------------------8--
B|--10--8--8--8--6--6-----6--8--6--8--6---------9--6-----------6--------6-----6--------5-----
G|---------------------7-----------------7--7v--8-----7--5--7-----7--------7-----7--7--------
D|-------------------------------------------------------------------------------------------
A|-------------------------------------------------------------------------------------------
E|-------------------------------------------------------------------------------------------



E|--10--10--10--10--13--13--13--15--15--15--13--13--10--8--8--8--8--8--8--
B|--10--10--10--10--13--13--13--15--15--15--13--13--10--8--8--8--8--8--8--
G|------------------------------------------------------------------------
D|------------------------------------------------------------------------
A|------------------------------------------------------------------------
E|------------------------------------------------------------------------

To end solo- improvise with the above chord shapes

E|--0--
B|--6--
G|--7--
D|--0--
A|-----
E|-----

Build up

E|-------------------------------------------------------------0-----------0-----------0-----------0--
B|--------6--5--------8------------10-----------8-----------6-----------3-----------1-----------3-----
G|-----7-----------9-----9-----10------9-----9-----9-----7-----------5-----------3-----------5--------
D|--0-----------0-----------0-------------0-----------0-----------0-----------0-----------0-----------
A|----------------------------------------------------------------------------------------------------
E|----------------------------------------------------------------------------------------------------



E|-----------0----------------------------------6------------8-----------6--0--
B|--------6-----------8------------10--------8-----5-----10-----------8-----6--
G|-----7-----------9-----9-----10------9------------------------9-----------7--
D|--0-----------0-----------0-------------0-----------0------------0--------0--
A|-----------------------------------------------------------------------------
E|-----------------------------------------------------------------------------

Play melody- with the below riff on the end

E|--------------------------------3--5--3--
B|--------3--5--6--5-----3--5--6-----------
G|--3--5--------------5--------------------
D|-----------------------------------------
A|-----------------------------------------
E|-----------------------------------------
http://www.guitartabcreator.com
Guitar Tab Creator is intended to store guitar tab created through the tool. It currently does not support in-line text editing. Any text you place in here will be lost. If you need to comment on your tab, please use the "Tab Notes" section located below.