sightseers tune work in progress

(/) Slide Up  (\) Slide Down  (h) Hammer On  (p) Pull Off  (b) Bend (r) Release (v) Vibrato


E|--0--0--0--0--0--0-----------0-----0-----0-----0-----0-----0-----0-----------0-----
B|--------------------2-----2-----4-----0-----0-----1-----1-----2-----2-----2-----0--
G|-----------------------2-----------------------------------------------2-----------
D|-----------------------------------------------------------------------------------
A|-----------------------------------------------------------------------------------
E|-----------------------------------------------------------------------------------



E|-----7-----7-----7-----7-----7----------0--------------0--------------0--------------
B|--------0-----------0---------------12-----12------12-----12------12-----12------12--
G|--9-----------9-----------9----------------------------------------------------------
D|--------------------------------10-------------10-------------11-------------11------
A|-------------------------------------------------------------------------------------
E|-------------------------------------------------------------------------------------



E|-----7-----7-----7-----7---------7--------7--------7--------7--------7---------7--------
B|--------------5-----------10--------9--------9--------9--------9--------8---------8-----
G|--------6-----------8---------9-----------------9-----------------9---------------------
D|--7------------------------------------9-----------------9-----------------10-----------
A|----------------------------------------------------------------------------------------
E|----------------------------------------------------------------------------------------



E|-----7---------7-----
B|--------8---------8--
G|--9------------------
D|-----------10--------
A|---------------------
E|---------------------
http://www.guitartabcreator.com
Guitar Tab Creator is intended to store guitar tab created through the tool. It currently does not support in-line text editing. Any text you place in here will be lost. If you need to comment on your tab, please use the "Tab Notes" section located below.