Untitled acoustic

(/) Slide Up  (\) Slide Down  (h) Hammer On  (p) Pull Off  (b) Bend (r) Release (v) Vibrato
E|-----------------------------------------------------------------
B|---------0---------------0---------------0---------------3---0---
G|---5-------5-------5-------5-------5-------5-------5-------5---5-
D|-----5---------5-----5---------5-----5---------5-----5-----------
A|-3-----3-----3---3-----3-----3---0-----0-----0---0-----0---------
E|-----------------------------------------------------------------



E|-----------------------------------------------------------------0-
B|---------3---------------3---------------0---------------0-------5-
G|-----------5---5-----------5---5-----------5---------------5-----5-
D|-----5---------------5---------------5---------5-----5---------5-5-
A|---3---3-----3-----3---3-----3-----0---0-----0-----0---0-----0---0-
E|-3---------------3---------------5---------------5---------------0-



E|--0--0--3--0--
B|--0--0--3--0--
G|--5--5--5--5--
D|--5--5--5--5--
A|--7--0--3--0--
E|--7--5--3--0--



E|---------------------------
B|---------------------------
G|--9--7--5--5--9--12--5--5--
D|--9--7--5--5--9--12--5--5--
A|--7--5--3--3--7--10--3--3--
E|--7--5--3--3--7--10--3--3--



E|---------------------------------------------------
B|---------------------------------------------------
G|---------9-----------7-----------5-----------5-----
D|-----9-----9-----7-----7-----5-----5-----5-----5---
A|---7---7-------5---5-------3---3-------3---3-------
E|-7-----------5-----------3-----------3-------------



E|--------------------------------------------------------------------------------
B|--------------------------------------------------------------------------------
G|--------------9---------------------12------------------5-----------------5-----
D|--------9--------9----------12----------12--------5--------5--------5--------5--
A|-----7-----7------------10------10-------------3-----3-----------3-----3--------
E|--7-----------------10----------------------3-----------------3-----------------



E|---------3---------------3---------------0---------------0-------
B|-----------3---------------3---------------0---------------0-----
G|-----5---------5-----5---------5-----5---------5-----5---------5-
D|---5---5-----5-----5---5-----5-----5---5-----5-----5---5-----5---
A|-3---------------3-----------------------------------------------
E|---------------------------------3---------------3---------------



E|---------------------------------------------------
B|---------0-----------5-----------3-----------3-5-3-
G|-----5-----5-----5-----5-----5-----5-----5---------
D|-------5-----------5-----------5-----------5-------
A|---7-----------5-----------3-----------0-----------
E|-7-----------5-----------3-----------0-------------
http://www.guitartabcreator.com
Guitar Tab Creator is intended to store guitar tab created through the tool. It currently does not support in-line text editing. Any text you place in here will be lost. If you need to comment on your tab, please use the "Tab Notes" section located below.