The Entertainer

(/) Slide Up  (\) Slide Down  (h) Hammer On  (p) Pull Off  (b) Bend (r) Release (v) Vibrato

E|--10--12--8--5--7--3-----0--------------------------------------3-----------------------------------
B|----------------------3-----1-----0-----------------------------0-----------1-----1-----1--------1--
G|-------------------------------2-----0--------------------------0-----------------0-----------2--2--
D|----------------------------------------0--2-----------------------0--1--2-----2-----2--------3--3--
A|----------------------------------------------3--0--2--0-----------------3-----------------3--------
E|----------------------------------------------------------4--3--------------------------------------



E|-----------0--------0-----------------------------------------------------------------0--------
B|--1--3--4-----1--3-----0--3--1-----------------1-----1-----1-----------------------1-----3-----
G|-----------0--------------------0--0-----------------0-----------2--0--2--0-----2--------------
D|--------------------------------2--2--0--1--2-----2-----2--------3--2--------4-----------------
A|-----------------------------3--------------3-----------------3--------------5-----------------
E|-----------------------------------------------------------------------------------------------



E|-----------------------------------------------------------0--------0-----------------------0-----
B|--1-----3-----------------1-----1-----1--------1--1--3--4-----1--3-----0--3--1--------1--3--1--1--
G|-----2-----------0--------------0-----------2--0-----------0--------------------0--0--------------
D|-----------2--3--0--1--2-----2-----2--------3--2--------------------------------2--2--------------
A|-----------------------3-----------------3-----------------------------------3--------------------
E|--------------------------------------------------------------------------------------------------



E|-----0--------------0--------0--------------0--------0--------------8--
B|--3--------1--3--1-----1--3--------1--3--1-----1--3-----0--3--1-----5--
G|--------3-----------2-----------1-----------0--------------------0--5--
D|--------------------------------------------------------------2--------
A|-----------------------------------------------------------------------
E|-----------------------------------------------------------------------
http://www.guitartabcreator.com
Guitar Tab Creator is intended to store guitar tab created through the tool. It currently does not support in-line text editing. Any text you place in here will be lost. If you need to comment on your tab, please use the "Tab Notes" section located below.