The No Return solo 1

(/) Slide Up  (\) Slide Down  (h) Hammer On  (p) Pull Off  (b) Bend (r) Release (v) Vibrato


E|------------------------------------------------------------------------------------------------
B|------------------------------------------------------------------------------------------------
G|------------------------------------------------------------------------------------------------
D|------------------------------------------------------------------------------------------------
A|--2--3--2--0--2--0---------------------3--2--0-----------3--2--0-----------3--2--0--------------
E|--------------------3--2--0---------------------3--2--0-----------3--2--0-----------3--2--0-----



E|--------------------------2--4--4/6----5--------7--5--3--5--3--2--3--2--0--------0----0--0--0-----
B|--------------------2--4--------------------------------------------------------------------------
G|--------------1--3--------------------------------------------------------------------------------
D|--------1--2--------------------------------------------------------------------------------------
A|--1--2--------------------------------------------------------------------------------------------
E|--------------------------------------------------------------------------------------------------



E|-----------------------------------------------------------------------------------------
B|--0--1--0--------------------------------------------------------------------------------
G|-----------2--0--------------------------------------------------------------------------
D|-----------------2----------0--15\7/8\7\5/7\5/7\5\3/5\3\2/3\2\0--------0-----------------
A|--------------------------------------------------------------------------3--0-----------
E|--------------------------------------------------------------------------------3--1--0--
http://www.guitartabcreator.com
Guitar Tab Creator is intended to store guitar tab created through the tool. It currently does not support in-line text editing. Any text you place in here will be lost. If you need to comment on your tab, please use the "Tab Notes" section located below.