Intro to The No Return

(/) Slide Up  (\) Slide Down  (h) Hammer On  (p) Pull Off  (b) Bend (r) Release (v) Vibrato


E|-------12---------12-------12-------12--13--14--13--12-----------12--13--14--13--12---------12--12--
B|-------12---------12-------12-------12--13--14--13--12-----------12--13--14--13--12---------12--12--
G|----------------------------------------------------------------------------------------------------
D|----------------------------------------------------------------------------------------------------
A|----------------------------------------------------------------------------------------------------
E|--0----------0----------0--------0------------------------0----------------------------0------------



E|-------12--12--13--15--13--12-----------------------------------------------------------------------
B|-------12--12--13--15--13--12-----------------------------------------------------------------------
G|----------------------------------------------------------------------------------------------------
D|--------------------------------------2--3--2-----2--------0----------------------------------------
A|-----------------------------------------------3-----3--2-----3--2--0-------------------------------
E|--0------------------------------0-------------------------------------3--2--0--2--3--2--0--2--0----
http://www.guitartabcreator.com
Guitar Tab Creator is intended to store guitar tab created through the tool. It currently does not support in-line text editing. Any text you place in here will be lost. If you need to comment on your tab, please use the "Tab Notes" section located below.