Brown Eyed Girl Tab

(/) Slide Up  (\) Slide Down  (h) Hammer On  (p) Pull Off  (b) Bend (r) Release (v) Vibrato


E|-----3-----0-----3-----2-----3-----0-----3-----2-----3-----0-----3-----2-----3-----3-----2-----3-----
B|-----0-----1-----0-----3-----0-----1-----0-----3-----0-----1-----0-----3-----0-----0-----3-----------
G|-----0-----0-----0-----2-----0-----0-----0-----2-----0-----0-----0-----2-----0-----0-----2-----------
D|-----0-----2-----0-----0-----0-----2-----0-----0-----0-----2-----0-----------0-----0-----0-----------
A|-----2-----3-----2-----0-----2-----3-----2-----0-----2-----3-----2-----------2-----2-----0-----2-----
E|-----3-----0-----3-----0-----3-----0-----3-----0-----3-----0-----3-----------3-----3-----0-----3-----



E|-----0-----2-----3-----0-----0-----2-----3----------3-----0-----3-----2-----3-----0-----3-----2-----
B|-----1-----3-----0-----0-----1-----3-----0----------0-----1-----0-----3-----0-----1-----0-----3-----
G|-----0-----2-----0-----0-----0-----2-----0----------0-----0-----0-----2-----0-----0-----0-----2-----
D|-----2-----0-----0-----2-----2-----0-----0----------0-----2-----0-----0-----0-----2-----0-----0-----
A|-----3-----0-----2-----2-----3-----0-----2----------2-----3-----2-----0-----2-----3-----2-----0-----
E|-----0-----0-----3-----0-----0-----0-----3----------3-----0-----3-----0-----3-----0-----3-----0-----



E|-----7-----8------10-----8-----------12-----13-----15-----13-----12----------7-----8------10-----8------
B|-----8-----10-----12-----10----------13-----15-----17-----15-----13----------8-----10-----12-----10-----
G|--------------------------------------------------------------------------------------------------------
D|--------------------------------------------------------------------------------------------------------
A|--------------------------------------------------------------------------------------------------------
E|--------------------------------------------------------------------------------------------------------



E|-----8------7-----
B|-----10-----8-----
G|------------------
D|------------------
A|------------------
E|------------------
http://www.guitartabcreator.com
Guitar Tab Creator is intended to store guitar tab created through the tool. It currently does not support in-line text editing. Any text you place in here will be lost. If you need to comment on your tab, please use the "Tab Notes" section located below.