Invention #13

(/) Slide Up  (\) Slide Down  (h) Hammer On  (p) Pull Off  (b) Bend (r) Release (v) Vibrato

Stave 1:

E|--------------------------------0-----------0-----------------------------------------------------
B|-----------1--0-----0--3--1--------------------------------1--0-----0--3--1-----------------------
G|--2-----2-----------------------------1-----------2-----2-----------------------2-----------------
D|-----2-----------2-----------------------------0-----2-----------2-----------------------------0--
A|--0-----0-----------------0-----0--3--2-----2-----3-----0-----------------0-----0--3--2-----2-----
E|--------------------4--------0-----------0--------------------4-----0--------0-----------0--------

Stave 2:

E|-----0-----0--------------------------------1-----1--------------------1--0-----3-----------0-----
B|--------1--------1-----0--------------3--------------3--0--3-----1--3-----------------1-----------
G|--------------2-----------------2-----------------------------0--------------0-----0--------------
D|--------------------2-----3-----3-----------------------0-----------------------2-----3--2--------
A|--3-----0-----3-----0-----5--------0--2--3--0--3--2-----------------2-----2--------------------2--
E|-----------------------------5--------------------------------3-----------------------------3-----

Stave 3:

E|--0-----------1-----------------------0--------------------------------------------0--------------
B|-----1-----1--------3-----3--0-----0--------1-----1-----------3-----0-----------1-----3--0--3-----
G|--------2-----------------------0--------------------2-----2-----0-----0-----0--------------------
D|--------------0--------0-----------------2--------3-----3-----------3--------------------------3--
A|--0-----3--------3--2-----------2-----3-----0--3--------5-----------------3-----------------------
E|--------------------------3-----------------------------------3-----------------------------------

Stave 4:

E|-----------0-----------1--0-----3-----------3--------------0-----------1--0-----------3-----0-----
B|--------1-----3-----3-----------------0-----------1-----1-----3-----0-----------1-----------------
G|-----0-----------0-----------0-----------0-----------0-----------0-----------0-----0--------------
D|--2--------------------------------2--0-----0--3--2-----------------------------2--------2--------
A|--------3-----2-----------3-----3-----------------------3-----------------------------3--------2--
E|--------------------3-----------------------------------------------------------------------3-----

Stave 5:

E|-----------------0--------------2-----------------------------------------------0-----3-----------
B|--1-----------1--------1--3-----------------1-----0-----------0--3-----0--1-----------------0-----
G|-----2-----2--------2--------2--------2--------------0-----0--------0--------0--------0-----------
D|--------2-----------------------0--------0--------------0-----0-----4-----2--------2--------------
A|--0-----3-----------------------------0--------0--------2-----------------------3--------3--------
E|--------------0-----3-----2--------2--------1-----3-----------------------------------------0--3--

Stave 6:

E|-----2-----1--------1-----------3-----3--0-----0--------2-----------------------0-----0-----------
B|--------4-----0--3--------------------------1--------------------3--0--3-----------------1-----1--
G|--2-----2--------------2--0-----------------------2-----------------------0-----------------2-----
D|--------------------1--------2-----2--------2--------0-----0--------0--4--2-----------------------
A|--------------2-----------------0-----0--3--------------2--------------------3--0--3-----0--3-----
E|--2--------------------------------------------3--2-----------3-----------------------1-----------

Stave 7:

E|-----3--2--0-----1--------0--------------------------3--6--3--0--3-----0--3--0-----0--------------
B|--------------4-----0--3--------------------------------------------2-----------1-----------------
G|--------------------------------------------------------------------------------------2--0--------
D|--4--------------------------2--------------------------------------------------------------3--2--
A|--3--2--3-----2-----2-----------2--------2-----2--------------------1-----4-----------------------
E|--------------------------0--------3--0-----3-----0-----0-----3-----------------------------------

Stave 8:

E|-----1--5--1-----1--------1--------------------------0--3--0-----0--------------------------------
B|--------------3-----0--3-----3--0--3--------------------------1--------1--4--1-----1--------------
G|--------------------1-----------------0-----------------------------2-----------2-----------------
D|--------------3--------------------------3--2--0--------------0-----4-----------------4--2--1-----
A|--------0-----------------2-----------------------3-----3-----------------0--------------------4--
E|--0-----------------------------------------------------------------------------------------------

Stave 9:

E|--------1-----------------------------------------------------------------------------------------
B|-----3-----3--0--3-----0--3--0-----0-----------------------1--0-----0--3--1-----------1-----------
G|--------------------1-----------0-----------------------2-----------------------2-----------------
D|--------------0-----3-----------------2--0-----------2-----------2--------------------------2--0--
A|--2-----2-----------------------------------3--2--3-----0-----------------0-----0--3--2-----2-----
E|--------------------------4-----------------------------------4-----0--------0-----------0--------

Stave 10:

E|--------0--------------------------------------------------------------1--4--1-----1-----1--0-----
B|-----1-----1-----1--------1--------------1--0--------0--3--0-----0--3-----------3-----0--------3--
G|--2-----------2--------2-----2-----2-----------2--1-----1-----0-----0-----------------------------
D|--------------------4-----------3-----1-----------2-----------------------------------------------
A|--3-----0-----3-----------3-----------------------------------2-----------------2-----------------
E|--------------------------------------------------------------------------0-----------4-----0-----

Stave 11:

E|-----0--5--0-----0--------------------------------------------------0-----------------------------
B|--1-----------1--------1--4--1-----1-----1--0-----------0--------------------------1--0-----0--3--
G|--------------------2-----------2--------------2--1-----------0-----------------2-----------------
D|--------------2-----------------------1-----------------------0--------0-----2--2--------2--2-----
A|--0-----3-----------3-----0-----3--------------------2-----------2--------3-----------------------
E|--------------------------------------------------------4--0--------3-----------------3-----------

Stave 12:

E|-----------0-----------1--0-----0--3--1--0-----------------0--1-----------------------1-----------
B|--1-----1-----3--0--3--------1--------------3--1--0--1--3--------3-----3--0--3--1--------3--0--3--
G|-----2--------------1-----------2-----------4-----1-----------------1--------------2--------------
D|--------4-----------------------------0-----------------3-----0-----------------------0-----2-----
A|--0-----------2-----------3-----------------------------------------2-----------0-----------------
E|--------------------------------------------------------------------------4-----------------------

Stave 13:

E|-----------------------------0-----0-----
B|-----0--1-----------0-----------1--------
G|--1--------2-----2-----0--2-----------2--
D|--3-----1-----2--------------------------
A|--------------------------0--------------
E|--------------0-----0--------------------

http://www.guitartabcreator.com
Guitar Tab Creator is intended to store guitar tab created through the tool. It currently does not support in-line text editing. Any text you place in here will be lost. If you need to comment on your tab, please use the "Tab Notes" section located below.