Remain

(/) Slide Up  (\) Slide Down  (h) Hammer On  (p) Pull Off  (b) Bend (r) Release (v) Vibrato
(*) Palm Mute

E|----------------------------------------------------
B|----------------------------------------------------
G|----------------------------------------------------
D|--------6-----7-----4-------------------------------
A|--4--4-----4-----4-----4--4h5-----7-----5-----4--4--
E|--4--4-----4-----4-----4-------4-----4-----4-----4--
* * * * * * * * *


E|---------------------------------------------------------------------------
B|---------------------------------------------------------------------------
G|---------------------------------------------------------------------------
D|-----6-----7-----4----------------------------------6-----7-----4----------
A|--4-----4-----------4h5-----7-----5-----4-----0--0-----0-----0-----0--4h5--
E|--4-----4-----4----------4-----4-----4-----4--0--0-----0-----0-----0-------
* * * * * * * * * * * *


E|----------------------------------------------------------------------------
B|----------------------------------------------------------------------------
G|----------------------------------------------------------------------------
D|--------------------------6-----7-----4-------------------------------4~----
A|-----7-----5-----4--0--0--------------------4h5-----7-----5-----4-----4~----
E|--0-----0-----0-----0--0-----0-----0-----0-------0-----0-----0-----0--4~----
* * * * * * * * * * * *


E|--------------------------------------------------------------------------------
B|--------------------------------------------------------------------------------
G|-----------6b7-----------6b7--------6b7-----------6b7-----------6b7--------6b7--
D|--4--4--4-------4--4--4-------4--4-------0--0--0-------0--0--0-------0--0-------
A|--4--4--4--4b5--4--4--4--4b5--4--4--4b5--0--0--0--4b5--0--0--0--4b5--0--0--4b5--
E|--4--4--4-------4--4--4-------4--4-------0--0--0-------0--0--0-------0--0-------
* * * * * * * * * * * * * * * *
Guitar Tab Creator is intended to store guitar tab created through the tool. It currently does not support in-line text editing. Any text you place in here will be lost. If you need to comment on your tab, please use the "Tab Notes" section located below.