Remember That

(/) Slide Up  (\) Slide Down  (h) Hammer On  (p) Pull Off  (b) Bend (r) Release (v) Vibrato


E|--------0-----3--|--------3-----3--|-----
B|--------1-----1--|--------3-----3--|-----
G|--------0-----0--|--------0-----0--|-----
D|-----2--2-----2--|-----0--0-----0--|-----
A|--0-----0--0--0--|--2-----2--2--2--|-----
E|-----------------|-----------------|-----



E|--------3-----3--|--------6-----6--|--
B|--------3-----3--|--------6-----6--|--
G|--------0-----0--|--------0-----0--|--
D|-----2--2-----2--|-----5--5-----5--|--
A|--3-----3--3--3--|--6-----6--6--6--|--
E|-----------------|-----------------|--



E|--------0-----0--|--------0-----0--|--------0-----0--|--
B|--------0-----0--|--------0-----0--|--------0-----0--|--
G|--------7-----7--|--------7-----7--|--------0-----0--|--
D|--------5-----5--|--------4-----4--|--------7-----7--|--
A|--7--7--7--7--7--|--5--5--5--5--5--|--------4-----4--|--
E|-----------------|-----------------|--5--5--5--5--5--|--
http://www.guitartabcreator.com
Guitar Tab Creator is intended to store guitar tab created through the tool. It currently does not support in-line text editing. Any text you place in here will be lost. If you need to comment on your tab, please use the "Tab Notes" section located below.