Go On Intro

(/) Slide Up  (\) Slide Down  (h) Hammer On  (p) Pull Off  (b) Bend (r) Release (v) Vibrato


E|--------------------------
B|--------------------------
G|--------------------------
D|--5/7--------5h7h5--------
A|--------------------7-----
E|-------5--5---------------



E|--------------------------------------------------------
B|--------------------------------------------------------
G|--------------------------------------------------5--3--
D|--5b5-----------------3h5h3-----3--3-----3--4--5--------
A|-------7--6--5---------------5--------5-----------------
E|----------------3--3------------------------------------



E|-------------------------------------------
B|-------------------------------------------
G|-------------------------------------------
D|--5/7--5--7--5-----------------------------
A|----------------7--6--5-----5--------------
E|-------------------------8-----8--5--8--5--



E|-----------0--
B|-----------0--
G|--7--5-----5--
D|--7--5-----5--
A|--5--3-----3--
E|--5--3--3--3--
http://www.guitartabcreator.com
Guitar Tab Creator is intended to store guitar tab created through the tool. It currently does not support in-line text editing. Any text you place in here will be lost. If you need to comment on your tab, please use the "Tab Notes" section located below.