Sabaton 40:1 solo

(/) Slide Up  (\) Slide Down  (h) Hammer On  (p) Pull Off  (b) Bend (r) Release (v) Vibrato


E|--12--9------9--12--9------9--12--9------9--12--9------9--|--7--4-----4--7--4-----4--7--4--------
B|---------10------------10------------10------------10-----|--------5-----------5-----------5-----
G|----------------------------------------------------------|--------------------------------------
D|----------------------------------------------------------|--------------------------------------
A|----------------------------------------------------------|--------------------------------------
E|----------------------------------------------------------|--------------------------------------



E|--4--7--4-----4--|--9--5-----5--9--5-----5--9--5-----5--9--5-----5--|--10--9--7----------------
B|-----------5-----|--------7-----------7-----------7-----------7-----|------------10--9--10-----
G|-----------------|--------------------------------------------------|--------------------------
D|-----------------|--------------------------------------------------|--------------------------
A|-----------------|--------------------------------------------------|--------------------------
E|-----------------|--------------------------------------------------|--------------------------



E|--7--9--7--|--9--7/9--10b12r10--9/10--10-------------------------|---------9--12-------------
B|-----------|------------------------------10--10--10--12--10--9--|--9--12---------12--10--9--
G|-----------|-----------------------------------------------------|---------------------------
D|-----------|-----------------------------------------------------|---------------------------
A|-----------|-----------------------------------------------------|---------------------------
E|-----------|-----------------------------------------------------|---------------------------
http://www.guitartabcreator.com
Guitar Tab Creator is intended to store guitar tab created through the tool. It currently does not support in-line text editing. Any text you place in here will be lost. If you need to comment on your tab, please use the "Tab Notes" section located below.