Dzem Wehikuł Czasu Solo

(/) Slide Up  (\) Slide Down  (h) Hammer On  (p) Pull Off  (b) Bend (r) Release (v) Vibrato
E|--------------------------------------------------|------------------
B|--------------------------------------------------|-3p2h3-5---0------
G|-------14-14----14h16-16b16b16b16r-14-------------|---------2---2-2v-
D|-12/16-------16-----------------------16-14h16p14-|------------------
A|--------------------------------------------------|------------------
E|--------------------------------------------------|------------------



E|--------|--------------------------------------|-------------------------------------------------
B|-5/7-5v-|----14h15p14-------------------17-----|-17/19-17v-15p14--------------------17-----------
G|--------|-14----------14-16b16r14-16b18----14v-|-----------------14-16b16r-14-16b18----16b16r-14-
D|--------|--------------------------------------|-------------------------------------------------
A|--------|--------------------------------------|-------------------------------------------------
E|--------|--------------------------------------|-------------------------------------------------



E|----------|--------------------------|--------------|-------------------------|-
B|----------|-14-10-12-----------------|-14-14-16-----|-17-17-17-15p14-15p14----|-
G|-14-14h16-|----------9-11-9/11-9-9v--|----------14v-|----------------------14-|-
D|----------|--------------------------|--------------|-------------------------|-
A|----------|--------------------------|--------------|-------------------------|-
E|----------|--------------------------|--------------|-------------------------|-



E|------------------|------------------|--17--14-----------------------------------------|--
B|------------------|------17/19--17v--|----------17--14h15p14---------------------------|--
G|--16b16r--14h16v--|--14--------------|------------------------16--14--16--14-----------|--
D|------------------|------------------|----------------------------------------16--14v--|--
A|------------------|------------------|-------------------------------------------------|--
E|------------------|------------------|-------------------------------------------------|--



E|------------------17--17--17b--17--14h17p14------14-----------------------------------------------------
B|----------17---------------------------------17------17p14------14--15--14---------17-------------------
G|--16--14------14--------------------------------------------16--------------16b18------16b16r--14--14v--
D|--------------------------------------------------------------------------------------------------------
A|--------------------------------------------------------------------------------------------------------
E|--------------------------------------------------------------------------------------------------------



E|----------------------------------------------------|--
B|----------14--15--14h15p14--------------------------|--
G|--14--16--------------------16--14--14--14h16-------|--
D|-----------------------------------------------14v--|--
A|----------------------------------------------------|--
E|----------------------------------------------------|--



E|----------------------------------------|----------------------------------|--------
B|----------------------------------------|----------------------------------|--------
G|------14--14-------------14--14---------|--14--14----------14--14----------|--16b16r
D|--16----------16--14h16----------16p14--|----------16--14----------16--14--|--------
A|----------------------------------------|----------------------------------|--------
E|----------------------------------------|----------------------------------|--------
http://www.guitartabcreator.com
Guitar Tab Creator is intended to store guitar tab created through the tool. It currently does not support in-line text editing. Any text you place in here will be lost. If you need to comment on your tab, please use the "Tab Notes" section located below.