Sound will begin in 5 seconds

Australian Music: Midnight

01234567891011121314151617181920212223
E
B
G
D
A
E
B
0 1 2 3 4 5 6 7 8 9 10 11 12 13 14 15 16 17 18 19 20 21 22 23
Top Courses in Music 160x600
(/) Slide Up  (\) Slide Down  (h) Hammer On  (p) Pull Off  (b) Bend (r) Release (v) Vibrato

Stave 1:

Eb|--------------------------------------------------
Bb|--------3-----------3-----------3-----------3-----
Gb|-----0-----0-----0-----0-----0-----0-----2-----2--
Db|--2-----------------------------------------------
Ab|--------------3-----------------------------------
Eb|--------------------------3-----------2-----------

Stave 2:

Eb|-----------------------------------------3-----------2--
Bb|--------3--------3/5--1--1h3p1--0-----3-----3-----3-----
Gb|-----0-----0--------------------------------------------
Db|--2-----------------------------------------------------
Ab|--------------3-----------------------------------------
Eb|-----------------------------------3-----------2--------

Stave 3:

Eb|--------3-----------2-----------0-----------2-----
Bb|-----------3-----------3-----------3-----------3--
Gb|-----0-----------0-----------0-----------0--------
Db|--2-----------------------------------------------
Ab|--------------3-----------------------------------
Eb|--------------------------3-----------2-----------

http://www.guitartabcreator.com
Guitar Tab Creator is intended to store guitar tab created through the tool. It currently does not support in-line text editing. Any text you place in here will be lost. If you need to comment on your tab, please use the "Tab Notes" section located below.