Sound will begin in 5 seconds

Gusty Garden Galaxy

Chords
01234567891011121314151617181920212223
E
B
G
D
A
E
B
0 1 2 3 4 5 6 7 8 9 10 11 12 13 14 15 16 17 18 19 20 21 22 23
Song Science #1: How Pros Use 6 Chords to Write Hit Songs
(/) Slide Up  (\) Slide Down  (h) Hammer On  (p) Pull Off  (b) Bend (r) Release (v) Vibrato

Stave 1:

E|-------------------------------------------------------------------------
B|-------------------------------------------------------------------------
G|--5--4--7--5--------------------------7--6--9--7-------------------------
D|--------------5-----2--3--5--5--3-----------------10--9--7--9--7h9p7--5--
A|-------------------------------------------------------------------------
E|-------------------------------------------------------------------------

Stave 2:

E|--------------------------1-----x--1-----------3--------------------------3--
B|--1-----------1-----------1-----1--3--------------------------1-----------3--
G|--------------------------2-----2--2--------------------------------------4--
D|--2-----------2-----------3-----2-----------------------------2-----------5--
A|--3-----------------------x--------x-----------2--------------3-----------2--
E|--x-----------x-----------x-----x--x-----------3--------------x-----------x--

Stave 3:

E|------------------------------------------------------------------------------------------
B|--8--7--10--8-----------------------------------------------------------------------------
G|---------------10--9--------10--9--12--10--9---------9--8--10--9--7--6--9--7--5--4--5--7--
D|----------------------------------------------12------------------------------------------
A|------------------------------------------------------------------------------------6--8--
E|------------------------------------------------------------------------------------------

Stave 4:

E|--x-----------------------------5-----1--------------------------------------------4--6--
B|--x-----------2-----------------6-----1--------------1--------3--------------1-----4--6--
G|--3-----------2-----------------7-----------------------------2--------------------5--7--
D|--3-----------2-----------------7-----3--------------------------------------2--2--6--8--
A|--1-----------------------3--5--5-----x--------------2-----------------------3--3--6--8--
E|--x-----------x-----5--7--------------x--------------3--------2--------------3--3--4--6--

http://www.guitartabcreator.com
Guitar Tab Creator is intended to store guitar tab created through the tool. It currently does not support in-line text editing. Any text you place in here will be lost. If you need to comment on your tab, please use the "Tab Notes" section located below.