Sound will begin in 5 seconds

Staley Kubrick Faked the Moon Landing

Chords
01234567891011121314151617181920212223
E
B
G
D
A
E
B
0 1 2 3 4 5 6 7 8 9 10 11 12 13 14 15 16 17 18 19 20 21 22 23
Top Courses in Music 160x600
(/) Slide Up  (\) Slide Down  (h) Hammer On  (p) Pull Off  (b) Bend (r) Release (v) Vibrato

Stave 1:

E|-------------------------------------------------------------------------------------------
B|-------------------------------------------------------------------------------------------
G|-------------------------------------------------------------------------------------------
D|-------------------------------------------------------------------------------------------
A|--2p4--4--4--4--4--4--4--2h4--4--4--4--4--4--4--2h4--4--4--4--4--4--2h4--4--4--4--4--4--4--
E|-------------------------------------------------------------------------------------------

Stave 2:

E|--------------------------------------------------------------------
B|--6--9--13--14--6--9--13--14--6--9--13--14--6--9--13--14--6--9--13--
G|--6--9--13--14--6--9--13--14--6--9--13--14--6--9--13--14--6--9--13--
D|--6--9--13--14--6--9--13--14--6--9--13--14--6--9--13--14--6--9--13--
A|--4--7--11--12--4--7--11--12--4--7--11--12--4--7--11--12--4--7--11--
E|--------------------------------------------------------------------

Stave 3:

E|--3-----2-----3-----2-----3-----2-----3-----2--
B|--3-----2-----3-----2-----3-----2-----3-----2--
G|--4-----2-----4-----2-----4-----2-----4-----2--
D|--5-----4-----5-----4-----5-----4-----5-----4--
A|--5-----4-----5-----4-----5-----4-----5-----4--
E|--3-----2-----3-----2-----3-----2-----3-----2--

Stave 4:

E|----------------------------------------------------------------------------------------------
B|----------------------------------------------------------------------------------------------
G|----------------------------------------------------------------------------------------------
D|------------------------------------------------4h6--6--6--6--6--6--6--4h6--6--6--6--6--6--6--
A|--2h4--4--4--4--4--4--4--2h4--4--4--4--4--4--4------------------------------------------------
E|----------------------------------------------------------------------------------------------

Stave 5:

E|----------------------------------------------------------------------------------------------
B|------------------------------------------------5h7--7--7--7--7--7--7--5h7--7--7--7--7--7--7--
G|--4h6--6--6--6--6--6--6--4h6--6--6--6--6--6--6------------------------------------------------
D|----------------------------------------------------------------------------------------------
A|----------------------------------------------------------------------------------------------
E|----------------------------------------------------------------------------------------------

http://www.guitartabcreator.com
Guitar Tab Creator is intended to store guitar tab created through the tool. It currently does not support in-line text editing. Any text you place in here will be lost. If you need to comment on your tab, please use the "Tab Notes" section located below.