Sound will begin in 5 seconds

Celebrate the New Sign

Chords
01234567891011121314151617181920212223
E
B
G
D
A
E
B
0 1 2 3 4 5 6 7 8 9 10 11 12 13 14 15 16 17 18 19 20 21 22 23
Top Courses in Music 160x600
(/) Slide Up  (\) Slide Down  (h) Hammer On  (p) Pull Off  (b) Bend (r) Release (v) Vibrato

Stave 1:

E|-----------9--------------------7--5--3--------3--------3--------3--------
B|--------7-----7--------------8--7--5--3--------3--------3--------3--------
G|-----7-----------7-----7--9-----------------4--------4--------4--------4--
D|--7-----------------7--------------------5--------5--------5--------5-----
A|--------------------------------------------------------------------------
E|--------------------------------------------------------------------------

Stave 2:

E|--3--------3--------3--------3--------3--------3--------3--------3--------
B|--4-----4--------4--------4--------4--------4--------4--------4--------4--
G|--5--5--------5--------5--------5--------5--------5--------5--------5-----
D|--------------------------------------------------------------------------
A|--------------------------------------------------------------------------
E|--------------------------------------------------------------------------

Stave 3:

E|--------3--------5---------8----------10--15--15--15--15--
B|-----4--------6---------9---------11------16--16--16--16--
G|--5--------7--------10--------12----------17--17--17--17--
D|----------------------------------------------------------
A|----------------------------------------------------------
E|----------------------------------------------------------

Stave 4:

E|--------3--------3--------3--------3--------3--------3--------3--------3--------3--------3--------
B|-----4--------4--------4--------4--------4--------4--------4--------4--------4--------4--------4--
G|--5--------5--------5--------5--------5--------5--------5--------5--------5--------5--------5-----
D|--------------------------------------------------------------------------------------------------
A|--------------------------------------------------------------------------------------------------
E|--------------------------------------------------------------------------------------------------

Stave 5:

E|--4--------4--------4--------4--------4--------4--
B|--------6--------6--------6--------6--------6-----
G|-----5--------5--------5--------5--------5--------
D|--------------------------------------------------
A|--------------------------------------------------
E|--------------------------------------------------

http://www.guitartabcreator.com
Guitar Tab Creator is intended to store guitar tab created through the tool. It currently does not support in-line text editing. Any text you place in here will be lost. If you need to comment on your tab, please use the "Tab Notes" section located below.