Sound will begin in 5 seconds

king kong goes to tallahassee

Chords
01234567891011121314151617181920212223
E
B
G
D
A
E
B
0 1 2 3 4 5 6 7 8 9 10 11 12 13 14 15 16 17 18 19 20 21 22 23
Song Science #1: How Pros Use 6 Chords to Write Hit Songs
(/) Slide Up  (\) Slide Down  (h) Hammer On  (p) Pull Off  (b) Bend (r) Release (v) Vibrato

Stave 1:

E|--5-----5--5-----5--5--5--------|--2-----3--2--1--0--------------|--------5--5-----------5--------
B|--7--7-----7--7-----7--7--------|--3--3-----3--2--1-----------1--|--------3--3--------3-----3-----
G|--------------------------------|-----------------------------0--|-----0-----0-----0-----------0--
D|--------------------------------|--------------------------------|--------------------------------
A|--------------------------------|--------------------------------|--------------------------------
E|--0--------0--------0-----0--0--|--0--------0--------0--0--0-----|--5-----------5--------5--------

Stave 2:

E|--3--5--5--3-----|--5h6--3-------5-----------------|--------------0h1--0-------------3-----1h2-----
B|--3--3--3--3-----|----------6h7-----7--------------|-----------3----------3--1h2--5-------------3--
G|--3--3--3--3-----|---------------------------------|-----------------------------------------------
D|-----------------|---------------------7-----------|-----------------------------------------------
A|-----------------|---------------------------------|--0--1--2-----2----------0----------0----------
E|--5-----------5--|----------0-------------0--0--0--|-----------------------------------------------

Stave 3:

E|--------------------------------------|--------------------|--5--5--5--5--7--5--------------
B|--------3-----3--3-----3--3-----3--3--|--1--2-----------3--|--7--7--7--7--7--7--------------
G|--------2-----2--1-----1--0-----0--2--|--0--2-----2--4-----|--------------------------------
D|-----4-----4-----3--3-----2--2--3--4--|--------------------|--------------------------------
A|--------------------------------------|--0-----0-----------|--------------------------------
E|--0-----------------------------------|--------------------|--0--------0--------0--0--0--0--

Stave 4:

E|--2-----3--2--1--0--------------|--------5--5-----------5--------|--3--5--5--3-----|--5h6--3-------5-----
B|--3--3-----3--2--1-----------1--|--------3--3--------3-----3-----|--3--3--3--3-----|----------6h7-----7--
G|-----------------------------0--|-----0-----0-----0-----------0--|--3--3--3--3-----|---------------------
D|--------------------------------|--------------------------------|-----------------|---------------------
A|--------------------------------|--------------------------------|-----------------|---------------------
E|--0--------0--------0--0--0-----|--5-----------5--------5--------|--5-----------5--|----------0----------

Stave 5:

E|-----------|--------------0h1--0-------------3-----1h2-----|-----------------------------------------
B|-----------|-----------3----------3--1h2--5-------------3--|--------3-----3--3-----3--2-----3--3--3--
G|-----------|-----------------------------------------------|--------2-----2--1-----1--0-----0--2--2--
D|-----------|-----------------------------------------------|-----4-----4-----3--3-----3--2--3--4--4--
A|-----------|--0--1--2-----2----------0----------0----------|-----------------------------------------
E|--0--0--0--|-----------------------------------------------|--0--------------------------------------

Stave 6:

E|--0-----0--1-----1--2-----2--|--------7-----7--7--------|--7-----7--5-----5--3----3-------3-----|--
B|-----------------------------|--------6-----6--6--------|--------------------3----3-------3-----|--
G|-----0--------1--------2-----|-----7--7--7--7--7--------|--7--7-----5--5-----3h4--3h4-----4-----|--
D|-----------------------------|--------------------------|---------------------------------------|--
A|-----------------------------|--------------------------|---------------------------------------|--
E|-----------0--------0--------|--5-----5-----5--5--5--5--|--5--------5--------5----5----5-----5--|--

Stave 7:

E|-----6--6--6--6--
B|-----------------
G|-----6--6--6--6--
D|-----------------
A|-----------------
E|--4--4--4--4--4--

http://www.guitartabcreator.com
Guitar Tab Creator is intended to store guitar tab created through the tool. It currently does not support in-line text editing. Any text you place in here will be lost. If you need to comment on your tab, please use the "Tab Notes" section located below.