Sound will begin in 5 seconds

Temper My Temper

Chords
01234567891011121314151617181920212223
E
B
G
D
A
E
B
0 1 2 3 4 5 6 7 8 9 10 11 12 13 14 15 16 17 18 19 20 21 22 23
Song Science #1: How Pros Use 6 Chords to Write Hit Songs
(/) Slide Up  (\) Slide Down  (h) Hammer On  (p) Pull Off  (b) Bend (r) Release (v) Vibrato

Stave 1:

E|------------------|------------------|---------------|-----------------|-
B|------------------|------------------|---------------|-----------------|-
G|------------------|------------------|---------------|-----------------|-
D|--------7---------|-0------7---------|---------------|--------7-9-7----|-
A|-7-9-10---10-9-10-|---9-10---10-9-10-|---9-10-7-9-10-|---9-10-------10-|-
E|------------------|------------------|-8-------------|-7---------------|-

Stave 2:

E|------------------|------------------|---------------|-----------------|---
B|------------------|------------------|---------------|-----------------|---
G|------------------|------------------|---------------|-----------------|---
D|--------7---------|-0------7---------|---------------|--------7--------|---
A|-7-9-10---10-9-10-|---9-10---10-9-10-|---9-10-7-9-10-|---9-10---10-9-5/|-7-
E|------------------|------------------|-8-------------|-7---------------|---

Stave 3:

E|-10/|-12----------|-------------------|----------|-------------|-12-------------|-
B|----|----15-13h15-|-12----------------|----------|-------------|----15-12h13h15-|-
G|----|-------------|----14-14-12-11h12-|----11h12p|-11-11h12p11-|----------------|-
D|----|-------------|-------------------|-14-------|-------------|----------------|-
A|----|-------------|-------------------|----------|-------------|----------------|-
E|----|-------------|-------------------|----------|-------------|----------------|-

Stave 4:

E|-------------------|-------------------------|-------------------------------------------------|-
B|-13-12-12----------|-------------10-10-12-12-|-10-10-10-10-12-12-12-12-13-13-13-13-15-15-13-13-|-
G|----------14-12-14-|-11-11-12-12-------------|-------------------------------------------------|-
D|-------------------|-------------------------|-------------------------------------------------|-
A|-------------------|-------------------------|-------------------------------------------------|-
E|-------------------|-------------------------|-------------------------------------------------|-

Stave 5:

E|-12-0-0-10-12-0-0-10-|-12-0-0-10-12-0-0-10-|-12-14-15-17-15-14-|----14-15-14-12-14-12-10-|-
B|---------------------|---------------------|-------------------|-15----------------------|-
G|---------------------|---------------------|-------------------|-------------------------|-
D|---------------------|---------------------|-------------------|-------------------------|-
A|---------------------|---------------------|-------------------|-------------------------|-
E|---------------------|---------------------|-------------------|-------------------------|-

Stave 6:

E|-12-0-0-10-12-0-0-10-|-8-0-0-7-5---5---|---------------5---|-5-3-2-0-
B|---------------------|-----------8---7-|-8-7h8p7-5-7-8---8-|-5-3-2-0-
G|---------------------|-----------------|-------------------|---------
D|---------------------|-----------------|-------------------|---------
A|---------------------|-----------------|-------------------|---------
E|---------------------|-----------------|-------------------|---------

Stave 7:

E|------------------|------------------|----------|----------|-----------------|-
B|------------------|------------------|----------|----------|-----------------|-
G|------------------|------------------|----------|----------|-9-7--------11-9-|-
D|--------7---------|-0------7---------|--------7-|------7-9-|-----9-7----11-9-|-
A|-7-9-10---10-9-10-|---9-10---10-9-10-|---9-10---|---10-----|---------10-9--7-|-
E|------------------|------------------|-8--------|-7--------|-----------------|-

http://www.guitartabcreator.com
Guitar Tab Creator is intended to store guitar tab created through the tool. It currently does not support in-line text editing. Any text you place in here will be lost. If you need to comment on your tab, please use the "Tab Notes" section located below.