Sound will begin in 5 seconds

Pagsuko - Jireh Lim (Self-Arranged Tab)

Chords
01234567891011121314151617181920212223
E
B
G
D
A
E
B
0 1 2 3 4 5 6 7 8 9 10 11 12 13 14 15 16 17 18 19 20 21 22 23
Top Courses in Music 160x600
(/) Slide Up  (\) Slide Down  (h) Hammer On  (p) Pull Off  (b) Bend (r) Release (v) Vibrato

Capo Fret 2

Stave 1:

E|--------------------------------------------------------------------------------------------------------
B|--------3-----0-----------------3-----0--------0--------1-----0-----------------1-----0-----------------
G|--0--0--------------2--0-----0--------------2--------2--------------2--0-----0-----------0--0--2-----0--
D|-----------0-----0--0--0--0--------0-----0--0-----0--------0-----0--0--0--0--------0--------0--0--0-----
A|--------------------------------------------------------2-----------------------3-----------------------
E|--------3-----------------------2-----------------------------------------------------------------------

Stave 2:

E|--------------------------------------------------------------------------------------------------
B|--3-----0-----------------3-----0--------0--------------------1--0--------1-----0-----------------
G|--------------2--0-----0--------------2-----2--0--0-----0-----0--0-----0--------------2--0-----0--
D|-----0-----0--0--0--0--------0-----0--0--------------0-----0--------0--------0-----0--0--0--0-----
A|--------------------------------------------------2-----------------------3-----------------------
E|--3-----------------------2-----------------------------------------------------------------------

Stave 3:

E|--------------------------------------------------------------------------------------------------
B|--3-----0--------0--------3-----0-----------------------------1-----0-----1-----0-----------------
G|--------------2--------2--------------2--0-----0--0-----0--------------------------0--2--0-----0--
D|-----0-----0--0-----0--------0-----0--0--0--0--------2-----2-----0-----0-----0--------0-----0-----
A|--------------------------------------------------------------------------3-----------------------
E|--3-----------------------2-----------------------0-----------------------------------------------

Stave 4:

E|--------------------------------------------------------------------------------------------------
B|--3-----0-----------------3-----0-----------------1-----0-----------------3-----0-----------------
G|-----------0--0--2-----0--------------2--0-----0-----------0--2--0--0--------------0--2-----0-----
D|-----0--------0-----0--------0-----0--0--0--0--------0--------0--0-----0-----0--------0--0-----4--
A|--------------------------------------------------2-----------------------3-----------------------
E|--3-----------------------2-----------------------------------------------------------------------

Stave 5:

E|-----------------------------------------------------------------------------------------------
B|--------------3--------------------------------1-----0-----------------1-----0-----------------
G|--0-----0-----------0-----2-----2-----2-----0--------------0--0--2--0--------------2--0-----0--
D|-----2-----2-----2-----2-----0-----0-----0--------0-----0-----0--0--------0-----0--0--0--0-----
A|-----------------------------------------------2-----------------------3-----------------------
E|--0-----------------------2--------------------------------------------------------------------

Stave 6:

E|---------------------------------------------------------------------------3-----2-----------------
B|--3--3--3--0--3/5--3-----------3--3--3--0--3/5--3-----------3--3--3--3-----------------2-----0-----
G|----------------------------0--0--0----------------------0--0--0--------0-----0--0--0-----0-----0--
D|-------------------------0----------------------------0--------------------------------------------
A|-------------------------------x----------------------------x--------------2-----x-----------------
E|----------------------3--------x-------------------2--------x--------------------x-----------------

Stave 7:

E|------------------------------------------------------------------------------3-----2-----------------
B|--3--------3--3--3--0--3/5--3--------3--3--3--0--3/5--3--------3--3--3--3-----------------2-----0-----
G|--------0--0--0----------------------0--0----------------------0--0--------0--------0--0-----0-----0--
D|-----0-----x----------------------0-------------------------0--------------------0--------------------
A|--3--------x-------------------------x-------------------------x--------------2-----x-----------------
E|-----------x-------------------3-----x-------------------2-----x--------------------x-----------------

Stave 8:

E|---------------------------------------------------------------------
B|--3--------3--3--1--0--1-----1--1--1h3--1--0-------------------------
G|--------0--0--0--------2-----2--2-------2--2--2-----2--2/4--2--0--0--
D|-----0--------------------2-------------------0--0-------------------
A|--3--------x-----------0-----x---------------------------------------
E|-----------x-----------------x---------------------------------------

Stave 9:

E|--
B|--
G|--
D|--
A|--
E|--

Stave 10:

E|--
B|--
G|--
D|--
A|--
E|--

http://www.guitartabcreator.com
Guitar Tab Creator is intended to store guitar tab created through the tool. It currently does not support in-line text editing. Any text you place in here will be lost. If you need to comment on your tab, please use the "Tab Notes" section located below.