Sound will begin in 5 seconds

run pig run in progress

Chords
01234567891011121314151617181920212223
E
B
G
D
A
E
B
0 1 2 3 4 5 6 7 8 9 10 11 12 13 14 15 16 17 18 19 20 21 22 23
Song Science #1: How Pros Use 6 Chords to Write Hit Songs
(/) Slide Up  (\) Slide Down  (h) Hammer On  (p) Pull Off  (b) Bend (r) Release (v) Vibrato

Stave 1:

E|---------------12--
B|---------------12--
G|---------------12--
D|---------------12--
A|------9--6---------
E|--10---------------

Stave 2:

E|------------------------------
B|------------------------------
G|--11--------8--------5--------
D|--12--------9--------6--------
A|--12--------9--------6--------
E|--10--------7--------4--------

Stave 3:

E|------------------------------
B|------------------------------
G|---------------------5--------
D|---------------------6--------
A|--12--------9--------6--------
E|--x---------x--------4--------

Stave 4:

E|--------------------------------------------
B|--------------------------------------------
G|--------1--------0--------------------------
D|--3--0--------------3--0--0-----------------
A|-----------------------------3--3--0--------
E|--------------------------------------3--1--

Stave 5:

E|--------------------------------------------
B|-----------------0-----------------0--------
G|--------1-----------3--1--1--3--3-----3--1--
D|--3--0--------------------------------------
A|--------------------------------------------
E|--------------------------------------------

Stave 6:

E|----------------------------------
B|----------------------------------
G|------14--17------17--19--17------
D|--16----------16--------------16--
A|----------------------------------
E|----------------------------------

Stave 7:

E|----------------------------------
B|----------------------------------
G|--13--13------13--13--14--13--11--
D|----------12----------------------
A|----------------------------------
E|----------------------------------

Stave 8:

E|------------------------------------------------------------------
B|------------------------------------------------------------------
G|------14--17------17--19--17------14------14------17--19--17------
D|--16----------16--------------16------16------16--------------16--
A|------------------------------------------------------------------
E|------------------------------------------------------------------

Stave 9:

E|----------------------------------------------------------------
B|----------------------------------------------------------------
G|--13--13------13--14--14-------------13--13--14--13--11--13--13b
D|----------12--------------12--12--------------------------------
A|----------------------------------------------------------------
E|----------------------------------------------------------------

Stave 10:

E|----------------------------------------------------------------
B|----------------------------------------------------------------
G|--------12--11--12--11--9--11--9-----9--8--9--8-----7--6--7--6--
D|----------------------------------------------------------------
A|----------------------------------------------------------------
E|--9-------------------------------------------------------------

Stave 11:

E|---------------------
B|---------------------
G|------------5--------
D|------------6--------
A|------9-----6--------
E|--10--------4--------

Stave 12:

E|--17---------19--20-----15--13--17------------------------
B|------15----------------------------16-----12--13---------
G|---------------------------------------------------12--8--
D|----------------------------------------------------------
A|----------------------------------------------------------
E|----------------------------------------------------------

Stave 13:

E|-------------------------------------------------------------------
B|-------------------------------------------------------------------
G|--11--------17-----8--------17-----5--------17-----5--------17-----
D|--12---------------9---------------6---------------6---------------
A|--12---------------9---------------6---------------6---------------
E|--10---------------7---------------4---------------4---------------

Stave 14:

E|--
B|--
G|--
D|--
A|--
E|--

http://www.guitartabcreator.com
Guitar Tab Creator is intended to store guitar tab created through the tool. It currently does not support in-line text editing. Any text you place in here will be lost. If you need to comment on your tab, please use the "Tab Notes" section located below.