Sound will begin in 5 seconds

Ahri Loading Screen

01234567891011121314151617181920212223
E
B
G
D
A
E
B
0 1 2 3 4 5 6 7 8 9 10 11 12 13 14 15 16 17 18 19 20 21 22 23
Song Science #1: How Pros Use 6 Chords to Write Hit Songs
(/) Slide Up  (\) Slide Down  (h) Hammer On  (p) Pull Off  (b) Bend (r) Release (v) Vibrato

Stave 1:

E|------------------8------------------------------10----------------------------------------------12------
B|----------10---------10------10----------12----------13--12--------------------------12--14--15------15--
G|--10----------10---------10------12----------12--------------12--14--------------14----------------------
D|------10-----------------------------12------------------------------14--11--14--------------------------
A|---------------------------------------------------------------------------------------------------------
E|---------------------------------------------------------------------------------------------------------

Stave 2:

E|--12----------15------17----------------------17--19--------------------------10--12--
B|------------------------------------------13------------------------------12----------
G|----------12------12------------------14------------------------------12--------------
D|--------------------------------------------------------------------------------------
A|------15------------------15--12----------------------17--14--------------------------
E|----------------------------------13--------------------------15--10------------------

Stave 3:

E|-------------------------------------------------7--8--5/17--15--12h13b12--15-------------------------
B|----------------------------------------------8--------------------------------14p13--------------13--
G|-------------------------------------------9------------------------------------------14--12--14------
D|------------------------------------7--10-------------------------------------------------------------
A|--0--10--12--10--9------------0--7--------------------------------------------------------------------
E|--------------------12--8--7--------------------------------------------------------------------------

Stave 4:

E|-----------------15--13--12--15--12------------------
B|-----13------13----------------------15--13--12------
G|---------14--------------------------------------14--
D|-----------------------------------------------------
A|-----------------------------------------------------
E|-----------------------------------------------------

http://www.guitartabcreator.com
Guitar Tab Creator is intended to store guitar tab created through the tool. It currently does not support in-line text editing. Any text you place in here will be lost. If you need to comment on your tab, please use the "Tab Notes" section located below.