Sound will begin in 5 seconds

Lux Aeterna 4 Lotionman

Chords
01234567891011121314151617181920212223
E
B
G
D
A
E
B
0 1 2 3 4 5 6 7 8 9 10 11 12 13 14 15 16 17 18 19 20 21 22 23
Top Courses in Music 160x600
(/) Slide Up  (\) Slide Down  (h) Hammer On  (p) Pull Off  (b) Bend (r) Release (v) Vibrato

Capo Fret 4

Stave 1:

F|--------------------------------------------------------------------------------------------------------
C|--------------------------------------------------------------------------------------------------------
F|--------------0-----2--3--0-----------------------3--2--0-----3--2--0--------3--2--0--------5--3--2--3--
C|--0-----------0-----0--0--0-----------5-----3--0-----------0--0--------0-----0--0--0-----0--0--0--0--0--
F|--0--0--0--0--------------0--0--0--0--0--0--0-----0-----0-----0--------------0--------------------------
A|--0-----------4--4--3--3--0-----------4-----3--------------------------------4--------4-----3--------3--

Stave 2:

F|-----------------------------------------------------------0--0--0--------0--0--0--------2--2--2--------2--2--3--3-----
C|--0--0--0--------0--0--0--------0--0--0--------0--0--0--0--0--0--0--------0--0--0--------0--0--0--------0--0--0--0-----
F|--3--2--0--------3--2--0--------3--2--0--------5--3--2--3--3--2--0--------3--2--0--------3--2--0--------2--2--3--3-----
C|--0-----------0--0--------0-----0--0--0-----0--0--0--0--0--------------------------0-----------------0--0--0--0--0-----
F|--0--------0-----0--------------0--------------------------------------0-----------------------------------------------
A|--------------------------------4--------4-----3--------3--0--------0-----0--------------4--------4-----3--------3-----

Stave 3:

F|--
C|--
F|--
C|--
F|--
A|--

http://www.guitartabcreator.com
Guitar Tab Creator is intended to store guitar tab created through the tool. It currently does not support in-line text editing. Any text you place in here will be lost. If you need to comment on your tab, please use the "Tab Notes" section located below.