Sound will begin in 5 seconds

Variegated

Chords
01234567891011121314151617181920212223
E
B
G
D
A
E
B
0 1 2 3 4 5 6 7 8 9 10 11 12 13 14 15 16 17 18 19 20 21 22 23
Song Science #1: How Pros Use 6 Chords to Write Hit Songs
(/) Slide Up  (\) Slide Down  (h) Hammer On  (p) Pull Off  (b) Bend (r) Release (v) Vibrato

Stave 1:

E|-12-------10-------12----------------12-------17-------------------------
B|----13-------12-------12-13-15----------13-------18----------------------
G|-------14-------12-------------16-14-------14-------19-15-16----15-16----
D|-------------------------------------------------------------16-------17-
A|-------------------------------------------------------------------------
E|-------------------------------------------------------------------------

Stave 2:

E|---------------------
B|---------------------
G|-9-7-9-14-9-14-------
D|-9-7-9-14-9-14-9-8-9-
A|-7-5-7-12-7-12-9-8-9-
E|---------------7-6-7-

Stave 3:

E|-12-10-12-17-12-12-17-17-22-19-21-17-
B|-12-10-12-17-13-12-17-18-22-19-21-17-
G|-14-12----17-14-12-17-19-22-19-21-17-
D|-14-12-------14-12-17-19-------------
A|-------------------------------------
E|-------------------------------------

Stave 4:

E|-12-------10-------12-------17-------12-------10-------17-------22-------21-------17-------
B|----12-------12-------12-13----17-------13-------12-------17-------20-------19-18----17----
G|-------14-------12----------------14-------14-------12-------17-------19----------------17-
D|-------------------------------------------------------------------------------------------
A|-------------------------------------------------------------------------------------------
E|-------------------------------------------------------------------------------------------

Stave 5:

E|-----------------------------------------------------------------
B|-----------------------------------------------------------------
G|-----------------------------------------------------------------
D|-----------------------------------------------------------------
A|-7-7-7-7-5-5-5-5-7-7-7-7---------7-7-7-7-5-5-5-5-7-7-7-7---------
E|-------------------------7-7-7-7-------------------------5-5-5-5-

Stave 6:

E|-------------17-17-22-22-22-22-
B|-13-12-16----17-17-22-22-22-22-
G|-14-14-15-14-17-16-22-21-22-19-
D|-14-14----14-------------------
A|-------------------------------
E|-------------------------------

http://www.guitartabcreator.com
Guitar Tab Creator is intended to store guitar tab created through the tool. It currently does not support in-line text editing. Any text you place in here will be lost. If you need to comment on your tab, please use the "Tab Notes" section located below.