Sound will begin in 5 seconds

Tree - Cryptomorphism

Chords
01234567891011121314151617181920212223
E
B
G
D
A
E
B
0 1 2 3 4 5 6 7 8 9 10 11 12 13 14 15 16 17 18 19 20 21 22 23
Top Courses in Music 160x600
(/) Slide Up  (\) Slide Down  (h) Hammer On  (p) Pull Off  (b) Bend (r) Release (v) Vibrato

Stave 1:

E|-------------------------3-3-0-0-
B|-0-0-------------0-0-5-5---------
G|-----2-2-0-0---------------------
D|-------------2-2-----------------
A|---------------------------------
E|---------------------------------

Stave 2:

E|---------3-3-0-0-0-0-5-5-8-8-5-5-0-0-----
B|-4-4-5-5-----------------------------4-5-
G|-------------------------------------2-4-
D|-----------------------------------------
A|-----------------------------------------
E|-----------------------------------------

Stave 3:

E|---------3-3-0-0-5-5-0-0-2-2---------
B|-4-4-5-5---------------------0-0-4-5-
G|---------------------------------2-4-
D|-------------------------------------
A|-------------------------------------
E|-------------------------------------

Stave 4:

E|---------------0---0-----------------------2-9---5---3---2---
B|-0---0---0---0---3---0---------2---2---2-0-----7-----------0-
G|---2---0---------------4---4-----4---------------------------
D|-----------2-------------5-----------4-------------4---2-----
A|-----------------------------2-------------------------------
E|-------------------------------------------------------------

Stave 5:

E|---------0---------------7-------
B|-0---0-----0-----2---7-----7-----
G|---2---0-----4-----4---9-----9---
D|---------------2---------------9-
A|---------------------------------
E|---------------------------------

Stave 6:

E|-
B|-
G|-
D|-
A|-
E|-

http://www.guitartabcreator.com
Guitar Tab Creator is intended to store guitar tab created through the tool. It currently does not support in-line text editing. Any text you place in here will be lost. If you need to comment on your tab, please use the "Tab Notes" section located below.