???

(/) Slide Up  (\) Slide Down  (h) Hammer On  (p) Pull Off  (b) Bend (r) Release (v) Vibrato

Stave 1:

E|-------------------------8-----8-----10-----10-----
B|-8-----8-----8-----8-------8-----8------8------8---
G|---7-----7-----0-----0-------8-----8------7------7-
D|-----8-----8-----7-----7---------------------------
A|---------------------------------------------------
E|---------------------------------------------------

Stave 2:

E|-8-----8-----5-----5-------------------------11---
B|---6-----6-----5-----5---7-0-0-7-5-4-8-----8------
G|-----5-----5-----5-----5---------------7----------
D|-----------------------------------------8------6-
A|--------------------------------------------------
E|--------------------------------------------------

http://www.guitartabcreator.com
Guitar Tab Creator is intended to store guitar tab created through the tool. It currently does not support in-line text editing. Any text you place in here will be lost. If you need to comment on your tab, please use the "Tab Notes" section located below.