Sound will begin in 5 seconds

The Moment of Beauty 03 (Cryptomorphism)

Chords
01234567891011121314151617181920212223
E
B
G
D
A
E
B
0 1 2 3 4 5 6 7 8 9 10 11 12 13 14 15 16 17 18 19 20 21 22 23
Top Courses in Music 160x600
(/) Slide Up  (\) Slide Down  (h) Hammer On  (p) Pull Off  (b) Bend (r) Release (v) Vibrato

Stave 1:

E|---------------3-8-8-8-8-7-5-3-2-0---------------5-5-3-2---
B|---------4---------------------------------6-------6-4-3---
G|-----5-----5---------------------------7-----7-----7-5-4-4-
D|-------------5---------------------------------7---7-5-4-4-
A|-3-3---3---------------------------5-5---5---------------2-
E|---------------------------------------------------------2-

Stave 2:

E|---------------2-3-3-3-3-2-2-0-0-0-
B|---------0-------0-0-0-0-0-0-0-0-0-
G|-----0-----0-----0-0-0-0-0-0-0-0-0-
D|-------------2---------------------
A|-2-2---2---------------------------
E|-----------------------------------

Stave 3:

E|--------------------
B|--------------------
G|-5---7---5-7--------
D|-5-2-7-9-5-7-7-9-10-
A|-3-2-5-9-3-5-7-9-10-
E|---0---7-----5-7-8--

http://www.guitartabcreator.com
Guitar Tab Creator is intended to store guitar tab created through the tool. It currently does not support in-line text editing. Any text you place in here will be lost. If you need to comment on your tab, please use the "Tab Notes" section located below.