Sound will begin in 5 seconds

Edvin Marton - Tosca Fantasy

Chords
01234567891011121314151617181920212223
E
B
G
D
A
E
B
0 1 2 3 4 5 6 7 8 9 10 11 12 13 14 15 16 17 18 19 20 21 22 23
Song Science #1: How Pros Use 6 Chords to Write Hit Songs
(/) Slide Up  (\) Slide Down  (h) Hammer On  (p) Pull Off  (b) Bend (r) Release (v) Vibrato

Stave 1:

E|----------12-14-12----------------------------------12-14-15-17-15-12-14-14-
B|----14-15----------15-14----12-12-14-15-------14-15-------------------------
G|-11----------------------11-------------12-12-------------------------------
D|----------------------------------------------------------------------------
A|----------------------------------------------------------------------------
E|----------------------------------------------------------------------------

Stave 2:

E|----------12-14-12----------------------15-14-12----14-14-14-12-12-------------
B|----14-15----------15-14----12-12-14-15----------12----------------14----15-15-
G|-11----------------------11-------------------------------------------15-------
D|-------------------------------------------------------------------------------
A|-------------------------------------------------------------------------------
E|-------------------------------------------------------------------------------

Stave 3:

E|----------15-17-15-----------------
B|----17-18----------18-17----15-----
G|-14----------------------14----4-4-
D|-------------------------------4-4-
A|-------------------------------2-2-
E|-----------------------------------

Stave 4:

E|------------------------------------14----------
B|-12-14-15-14-12-14------12-14-15-12----15-14-12-
G|-------------------11---------------------------
D|----------------------9-------------------------
A|------------------------------------------------
E|------------------------------------------------

Stave 5:

E|------------------------------------14----------
B|-14-14-15-14-12-14------14-14-15-14----15-14-12-
G|-------------------11---------------------------
D|----------------------9-------------------------
A|------------------------------------------------
E|------------------------------------------------

Stave 6:

E|-------------------------------------------------
B|-19-19-20-19-17-19-------22-22-23-22-20-22-------
G|-------------------16----------------------19----
D|----------------------14----------------------17-
A|-------------------------------------------------
E|-------------------------------------------------

Stave 7:

E|-19-21-22-21-19-21-------------------14----------
B|-------------------19----12-14-15-12----15-14-12-
G|----------------------16-------------------------
D|-------------------------------------------------
A|-------------------------------------------------
E|-------------------------------------------------

Stave 8:

E|-
B|-
G|-
D|-
A|-
E|-

http://www.guitartabcreator.com
Guitar Tab Creator is intended to store guitar tab created through the tool. It currently does not support in-line text editing. Any text you place in here will be lost. If you need to comment on your tab, please use the "Tab Notes" section located below.