Sound will begin in 5 seconds

Dirty Game 02 (Cryptomorphism)

Chords
01234567891011121314151617181920212223
E
B
G
D
A
E
B
0 1 2 3 4 5 6 7 8 9 10 11 12 13 14 15 16 17 18 19 20 21 22 23
Top Courses in Music 160x600
(/) Slide Up  (\) Slide Down  (h) Hammer On  (p) Pull Off  (b) Bend (r) Release (v) Vibrato

Stave 1:

E|-----0-------0---------------------------------------0-------0---
B|-3-----3-1-----------4---3---3-4-----6---5---5-6-------1---1---3-
G|---2-------2---2-5---------5-----7-----7---7-------2-----------2-
D|-0-----------------5---5-5---------7-----7-------2-------3-----0-
A|---------3-----0-3---------------5-------------------------------
E|-----------------------------------------------------------------

Stave 2:

E|------------------------0-0-
B|----------------2-1-----2-3-
G|----------------2-1-4-3-2-2-
D|----------------2-1-4-3-----
A|--------------------2-1-----
E|-5-5-4-7-6-9-10-------------

http://www.guitartabcreator.com
Guitar Tab Creator is intended to store guitar tab created through the tool. It currently does not support in-line text editing. Any text you place in here will be lost. If you need to comment on your tab, please use the "Tab Notes" section located below.