Sound will begin in 5 seconds

Cryptomorphism 01 (Cryptomorphism)

01234567891011121314151617181920212223
E
B
G
D
A
E
B
0 1 2 3 4 5 6 7 8 9 10 11 12 13 14 15 16 17 18 19 20 21 22 23
Top Courses in Music 160x600
(/) Slide Up  (\) Slide Down  (h) Hammer On  (p) Pull Off  (b) Bend (r) Release (v) Vibrato

Stave 1:

E|-----------------------4---------------------4-5-
B|-0-0-5-5-5-5-5-5-5-5-5---5-5-5-5-5-5-5-5-5-5-----
G|-------------------------------------------------
D|-------------------------------------------------
A|-------------------------------------------------
E|-------------------------------------------------

Stave 2:

E|-------------------4-4-5-4-4-4-4-4-4-4-4-5-5-7-
B|-0-0-5-5-5-5-5-5-5-----------------------------
G|-----------------------------------------------
D|-----------------------------------------------
A|-----------------------------------------------
E|-----------------------------------------------

Stave 3:

E|-------------------------4-4-4-4-4-4-5-5-5-5-5-5---------------------------------------
B|-5-5-5-5-5-5-6-6-6-6-6-6-------------------------5-5-5-5-5-5---------------------------
G|-------------------------------------------------------------5-5-5-5-5-5-4-4-4-4-4-4-2-
D|---------------------------------------------------------------------------------------
A|---------------------------------------------------------------------------------------
E|---------------------------------------------------------------------------------------

Stave 4:

E|----------------------------------------------------------------------------
B|-------15-------15-------15-------15-------13-------13-------13-------13-17-
G|----16-------16-------16-------16-------16-------16-------16-------16-------
D|-14-------14-------14-------14-------14-------14-------14-------14----------
A|----------------------------------------------------------------------------
E|----------------------------------------------------------------------------

Stave 5:

E|----------------------------------------------------------------------------
B|-------15-------15-------15-------15-------17-------17-------17-------17-17-
G|----16-------16-------16-------16-------16-------16-------16-------16-------
D|-14-------14-------14-------14-------14-------14-------14-------14----------
A|----------------------------------------------------------------------------
E|----------------------------------------------------------------------------

http://www.guitartabcreator.com
Guitar Tab Creator is intended to store guitar tab created through the tool. It currently does not support in-line text editing. Any text you place in here will be lost. If you need to comment on your tab, please use the "Tab Notes" section located below.