Sound will begin in 5 seconds

Awake solo of CRYPTOMORPHISM

01234567891011121314151617181920212223
E
B
G
D
A
E
B
0 1 2 3 4 5 6 7 8 9 10 11 12 13 14 15 16 17 18 19 20 21 22 23
Top Courses in Music 160x600
(/) Slide Up  (\) Slide Down  (h) Hammer On  (p) Pull Off  (b) Bend (r) Release (v) Vibrato

Stave 1:

E|-19-------19-------20-------19----20-20----19-------19-------20-------19----20-20----19-------
B|----17-17----17-17----17-17----17-------17----------------------------------------------------
G|----------------------------------------------19-19----19-19----19-19----19-------19----17-17-
D|----------------------------------------------------------------------------------------------
A|----------------------------------------------------------------------------------------------
E|----------------------------------------------------------------------------------------------

Stave 2:

E|-19-------20-------19----20-20----19-------19-------20-------19----20-20----
B|----------------------------------------------------------------------------
G|----17-17----17-17----17-------17----16-16----16-16----16-16----16-------16-
D|----------------------------------------------------------------------------
A|----------------------------------------------------------------------------
E|----------------------------------------------------------------------------

Stave 3:

E|-19-18-18-19-18-18-21-18-23-18-18-23-23-18-23-18-23-19-19-23-19-19-21-18-18-21-21-18-
B|-------------------------------------------------------------------------------------
G|-------------------------------------------------------------------------------------
D|-------------------------------------------------------------------------------------
A|-------------------------------------------------------------------------------------
E|-------------------------------------------------------------------------------------

Stave 4:

E|-21-------20-------19-------17-------15-------17-------19----17----15----17-19-
B|----20-20----19-19----17-17----17-17----17-17----17-17----17----17----17-------
G|-------------------------------------------------------------------------------
D|-------------------------------------------------------------------------------
A|-------------------------------------------------------------------------------
E|-------------------------------------------------------------------------------

Stave 5:

E|----19-17-19-20-17-19-------17-15-17-18-15-17-------15-13-15-16-13-15----
B|-17-------------------17-15-------------------15-13-------------------13-
G|-------------------------------------------------------------------------
D|-------------------------------------------------------------------------
A|-------------------------------------------------------------------------
E|-------------------------------------------------------------------------

Stave 6:

E|-------------------12-
B|-12-12-12-12-12-12----
G|----------------------
D|----------------------
A|----------------------
E|----------------------

http://www.guitartabcreator.com
Guitar Tab Creator is intended to store guitar tab created through the tool. It currently does not support in-line text editing. Any text you place in here will be lost. If you need to comment on your tab, please use the "Tab Notes" section located below.