Sound will begin in 5 seconds

Khruangbin - Thing Thung

Chords
01234567891011121314151617181920212223
E
B
G
D
A
E
B
0 1 2 3 4 5 6 7 8 9 10 11 12 13 14 15 16 17 18 19 20 21 22 23
Song Science #1: How Pros Use 6 Chords to Write Hit Songs
(/) Slide Up  (\) Slide Down  (h) Hammer On  (p) Pull Off  (b) Bend (r) Release (v) Vibrato

Stave 1:

E|------------------------------------------------------
B|--------------------------11--11----------------------
G|--12--12--10--10--12--12----------12--12--10--10--12--
D|------------------------------------------------------
A|------------------------------------------------------
E|------------------------------------------------------

Stave 2:

E|-----------------------------------------
B|-----------------------------------------
G|--------------------3--3-----------------
D|--5--5--3--3--5--5--------5--5--3--3--5--
A|-----------------------------------------
E|-----------------------------------------

Stave 3:

E|-----------------------------------------------------------------------
B|-----------------------------------------------------------------------
G|--10h12--10------------------------------------------------------------
D|-------------12--10/8--10--10--10--10--10--10--10--10--10--10--10--10--
A|-----------------------------------------------------------------------
E|-----------------------------------------------------------------------

Stave 4:

E|------------------------------------------------
B|------------------------------------------------
G|---------7--------------------------------------
D|--8--10-----8--10--7--8---------12--12--12--12--
A|-------------------------10---------------------
E|------------------------------------------------

Stave 5:

E|-----------------------------------------------------------------------------
B|-----------------------------------------------------------------------------
G|-----------------------3-----3-----5-----------------------------------3-----
D|--5--3-----3--5-----5-----5-----5-----5-----5--3-----3-----5--5--3--5--------
A|--------5-----------------------------------------5-----------------------5--
E|-----------------------------------------------------------------------------

Stave 6:

E|--------3----------------------------------------------------------------------------
B|-----3-----6--3----------------------------------------------------------------------
G|--5--------------5--3--5\7/5--3-----------------------5\7/5--3-----------------------
D|---------------------------------------3--3-----3--5------------------3--3-----3--5--
A|---------------------------------5--5--------5------------------5--5--------5--------
E|-------------------------------------------------------------------------------------

Stave 7:

E|-----------------------------------------------------------------------
B|-----------------------------------------------------------------------
G|--10h12--10------------------------------------------------------------
D|-------------12--10/8--10--10--10--10--10--10--10--10--10--10--10--10--
A|-----------------------------------------------------------------------
E|-----------------------------------------------------------------------

Stave 8:

E|------------------------------------------------
B|------------------------------------------------
G|---------7--------------------------------------
D|--8--10-----8--10--7--8---------12--12--12--12--
A|-------------------------10---------------------
E|------------------------------------------------

Stave 9:

E|-----------------3--------------------------------------------------------
B|-----------------3--------------------------------------------------------
G|-----------------------3-----3-----5--------------------------------3-----
D|--5--3-----3--5-----5-----5-----5-----5-----5--3-----3--5--5--3--5--------
A|--------5-----------------------------------------5--------------------5--
E|--------------------------------------------------------------------------

Stave 10:

E|--3---------------------------------------------------------------------------------
B|-----6--3---------------------------------------------------------------------------
G|-----------5--3--5\7/5--3--2-------------------------5\7/5--3--2--------------------
D|---------------------------------5--5--3-----3--3h5---------------5--5--3-----3--5--
A|------------------------------------------5--------------------------------5--------
E|------------------------------------------------------------------------------------

http://www.guitartabcreator.com
Guitar Tab Creator is intended to store guitar tab created through the tool. It currently does not support in-line text editing. Any text you place in here will be lost. If you need to comment on your tab, please use the "Tab Notes" section located below.