Sound will begin in 5 seconds

Picking exercises, triple 16th, 16th..

01234567891011121314151617181920212223
E
B
G
D
A
E
B
0 1 2 3 4 5 6 7 8 9 10 11 12 13 14 15 16 17 18 19 20 21 22 23
Top Courses in Music 160x600
(/) Slide Up  (\) Slide Down  (h) Hammer On  (p) Pull Off  (b) Bend (r) Release (v) Vibrato

Stave 1:

E|--------------------------------------------------------------------------------------------------
B|--------------------------------------------------------------------------------------------------
G|---------------------------------------------------------------------------------2-------2--4--2--
D|--------------------------------------------------2-------2--3--2--3----5--3--5-------5-----------
A|-------------------2-----2----3--2--3--5----3--5-----5--------------------------------------------
E|--1--3--5--3----5-----5---------------------------------------------------------------------------

Stave 2:

E|-----------------------------------------------3-----3----5--3--5--7--9--
B|----------------3-----3--5----3--5--6--5----6-----6----------------------
G|----4--5--4--5-----5-----------------------------------------------------
D|-------------------------------------------------------------------------
A|-------------------------------------------------------------------------
E|-------------------------------------------------------------------------

Stave 3:

E|-------------------------------------------------------------------------------------------------3--
B|------------------------------------------------------------------------------3--5------3--5--6-----
G|-----------------------------------------------------2-------2--4--5----4--5------------------------
D|------------------------------------2--3----2--3--5-------5-----------------------------------------
A|-----------2-------2--3--5----3--5------------------------------------------------------------------
E|--1--3--5-------5-----------------------------------------------------------------------------------

Stave 4:

E|-----3--5--7--
B|--6-----------
G|--------------
D|--------------
A|--------------
E|--------------

Stave 5:

E|-----------------------------------------------------------------------------------3-------3--5--7--8--
B|------------------------------------------------------------------3--5----3--5--6-------6--------------
G|-------------------------------------------------2--4--2----4--5---------------------------------------
D|--------------------------------2--3--2--3----5--------------------------------------------------------
A|-------------2----3--2--3--5---------------------------------------------------------------------------
E|----1--3--5--------------------------------------------------------------------------------------------

Stave 6:

E|----------------------------------------------------------------------------------------------------
B|----------------------------------------------------------------------------------------------------
G|----------------------------------------------------------------------------------------------------
D|----------------------------------------------------2-------------2--3----------2--3----5-----2--3--
A|-------------2----3--------2----3--5-----2----3--5-----2----3--5----------3--5-------------5--------
E|----1--3--5----------3--5-------------5-------------------------------------------------------------

Stave 7:

E|--------------------------------------------------------------------------------------------------
B|----------------------------------------------------------3-------------3--5----------3--5--6-----
G|-----2-------------2--4----------2--4--5-------2--4--5-------2--4--5----------4--5-------------5--
D|--5-----2--3----5--------3----5-------------5-----------------------------------------------------
A|--------------------------------------------------------------------------------------------------
E|--------------------------------------------------------------------------------------------------

Stave 8:

E|-----------3-------------3----5-----3--5--7--8--
B|--3--5--6-------3--5--6----------5--------------
G|------------------------------------------------
D|------------------------------------------------
A|------------------------------------------------
E|------------------------------------------------

http://www.guitartabcreator.com
Guitar Tab Creator is intended to store guitar tab created through the tool. It currently does not support in-line text editing. Any text you place in here will be lost. If you need to comment on your tab, please use the "Tab Notes" section located below.