Sound will begin in 5 seconds

Antimatter

Chords
01234567891011121314151617181920212223
E
B
G
D
A
E
B
0 1 2 3 4 5 6 7 8 9 10 11 12 13 14 15 16 17 18 19 20 21 22 23
Song Science #1: How Pros Use 6 Chords to Write Hit Songs
(/) Slide Up  (\) Slide Down  (h) Hammer On  (p) Pull Off  (b) Bend (r) Release (v) Vibrato

Stave 1:

E|--3--1--16--20--1--9--14--23--8--1--20--9--19--20--8--9--19--1--16--16--18--15--1--3--8--9--14--7--21--19--
B|-----1--16--20--1--9--14--23--8--1--20--9--19--20--8--9--19--1--16--16--18--15--1--3--8--9--14--7--21--19--
G|--------16--20------------23--------20-----19--20--------19-----16--16--18-------------------------21--19--
D|-------------------9--14------8---------9----------8--9---------------------15--------8--9--14-------------
A|------------20--------14--23--------20---------20-----------------------18--15--------------14--7--21------
E|--3-------------------14--23---------------19------------19-------------18--15-----3--------14--7------19--
B|--3--1----------1--9------23-----1------9--19---------9--19--1--------------15--1--3-----9------7--21--19--

Stave 2:

E|--8--15--23--4--15--23--15--21--11--14--15--23--20--8--9--19--
B|--8--15--23--4--15--23--15--21--11--14--15--23--20--8--9--19--
G|---------23---------23------21--------------23--20--------19--
D|--8--15--23--4--15--23--15------11--14--15----------8--9------
A|-----15--23-----15------15--21------14--15--23--20------------
E|-----15--23-----15--23--15------11--14--15--23------------19--
B|-----15--23-----15------15--21--11------15--23---------9--19--

Stave 3:

E|--23--5--12--12--23--15--21--1--18--5--20--8--5--3--1--16--20--1--9--14--
B|--23--5--12--12--23--15--21--1--18--5--20--8--5-----1--16--20--1--9--14--
G|--23-------------23------21-----18-----20--------------16--20------------
D|------5--12--12--23--15-------------5------8--5-------------------9--14--
A|--23--5--12--12------15--21---------5--20-----5------------20--------14--
E|--23-----------------15---------18---------------3-------------------14--
B|--23--5----------23--15--21--1------5---------5--3--1----------1--9------

Stave 4:

E|--23--8--1--20--19--8--15--21--12--4--23--5--4--15--
B|--23--8--1--20--19--8--15--21--12--4--23--5--4--15--
G|--23--------20--19---------21---------23------------
D|------8-------------8--15------12--4------------15--
A|--23--------20--19-----15--21--12-----23--5--4--15--
E|--23------------19-----15-------------23--------15--
B|--23-----1-------------15--21---------23--5-----15--

Stave 5:

E|--9--19--9--20--20--8--1--20--4--1--14--7--5--18--15--21--19--
B|--9--19--9--20--20--8--1--20--4--1--14--7--5--18--15--21--19--
G|-----19-----20--20--------20------------------18------21--19--
D|--9------9----------8---------------14------------15----------
A|------------20--20--------20--4-----14--7--5------15--21------
E|-----19-----------------------------14--7-----18--15------19--
B|--9--19--9-------------1---------1------7--5------15--21--19--

Stave 6:

E|--1--12--18--9--7--8--20--9--20--18--21--19--20--23--15--21--3--1--16--20--9--14--
B|--1--12--18--9--7--8--20--9--20--18--21--19--20--23--15--21-----1--16--20--9--14--
G|---------18-----------20-----20--18--21--19--20--23------21--------16--20---------
D|-----12------9-----8------9----------------------23--15--------------------9--14--
A|-----12---------7-----20-----20------21------20------15--21------------20-----14--
E|---------18-----7----------------18------19----------15------3----------------14--
B|--1----------9--7---------9----------21--19------23--15--21--3--1----------9------

Stave 7:

E|--1--12--18--9--7--8--20--9--13--19--20--18--1--16--5--4--9--14--
B|--1--12--18--9--7--8--20--9--13--19--20--18--1--16--5--4--9--14--
G|---------18-----------20---------19--20--18-----16---------------
D|-----12------9-----8------9--13---------------------------9--14--
A|-----12---------7-----20-----13------20-------------5--4-----14--
E|---------18-----7----------------19------18------------------14--
B|--1----------9--7---------9--13--19----------1------5-----9------

Stave 8:

E|--23--1--9--20--3--1--16--20--1--9--14--23--8--1--20--1--18--5--23--15--21--4--15--9--14--7--
B|--23--1--9--20--3--1--16--20--1--9--14--23--8--1--20--1--18--5--23--15--21--4--15--9--14--7--
G|--23--------20--------16--20------------23--------20-----18-----23------21-------------------
D|---------9-----------------------9--14------8-------------------23--15---------15--9--14-----
A|--23--------20------------20--------14--23--------20---------5------15--21--4--15-----14--7--
E|--23------------3-------------------14--23---------------18---------15---------15-----14--7--
B|--23--1--9------3--1----------1--9------23-----1------1------5--23--15--21-----15--9------7--

Stave 9:

E|--
B|--
G|--
D|--
A|--
E|--
B|--

http://www.guitartabcreator.com
Guitar Tab Creator is intended to store guitar tab created through the tool. It currently does not support in-line text editing. Any text you place in here will be lost. If you need to comment on your tab, please use the "Tab Notes" section located below.