Sound will begin in 5 seconds

Black Ice

Chords
01234567891011121314151617181920212223
E
B
G
D
A
E
B
0 1 2 3 4 5 6 7 8 9 10 11 12 13 14 15 16 17 18 19 20 21 22 23
Song Science #1: How Pros Use 6 Chords to Write Hit Songs
(/) Slide Up  (\) Slide Down  (h) Hammer On  (p) Pull Off  (b) Bend (r) Release (v) Vibrato

(W|WW) Whole (H|HH) Half (Q|QQ) Quarter (E|EE) 8th (S|SS) 16th (T|TT) 32nd (X|XX) 64th

Stave 1:
t: E E E Q Q Q E E E Q E S S E E E Q Q Q E E E Q Q E E E Q E E E E E E E
D|-------------------------------------------------------------------0-------------------------------------
A|-----------------------------1----------------------------------------1----------------------------1-----
F|-----------0--------------0--------0p2-----------0--------------0-----2-----------0--2p0--------------0--
C|--------4-----4--------3--------3-------------4-----4--------3-----------------4----------4-----3--------
G|-----5-----------5-------------------------5-----------5--------------------5----------------------------
C|--0-----------------3-------------------0-----------------3-----------3--0-------------------3-----------

Stave 2:
t: S S E E E E E E Q E E E E S S S S E E E S S
D|-------------------------------------------------------------------------|--
A|-------0-----0------------------------------0h1-----3--3--------------3--|--
F|----------5--------------0--2p0------------------0--4--4--------------4--|--
C|----------------------4----------4-----0h3-------------------------------|--
G|-------------------5-----------------------------------------------------|--
C|--3/5-----------0-------------------3---------------5--5-----------5-----|--

http://www.guitartabcreator.com
Guitar Tab Creator is intended to store guitar tab created through the tool. It currently does not support in-line text editing. Any text you place in here will be lost. If you need to comment on your tab, please use the "Tab Notes" section located below.