Sound will begin in 5 seconds

Every Time I Die - Petal

Chords
01234567891011121314151617181920212223
E
B
G
D
A
E
B
0 1 2 3 4 5 6 7 8 9 10 11 12 13 14 15 16 17 18 19 20 21 22 23
Song Science #1: How Pros Use 6 Chords to Write Hit Songs
(/) Slide Up  (\) Slide Down  (h) Hammer On  (p) Pull Off  (b) Bend (r) Release (v) Vibrato

Stave 1:

E|-------------|-
B|-10----10-10-|-
G|-------------|-
D|-8-----8--8--|-
A|-------------|-
D|-------------|-

Stave 2:

E|----------------------------------------|-
B|-10---10-10---10---10-10---10---10-10---|-
G|----------------------------------------|-
D|-8----8--8----8----8--8----8----8--8----|-
A|----0-------0----0-------0----0-------0-|-
D|----0-------0----0-------0----0-------0-|-

Stave 3:

E|-------------|-
B|-------------|-
G|-------------|-
D|-9-5-5-5-8---|-
A|-7\3-0-3/6-0-|-
D|-----------0-|-

Stave 4:

E|------------|-
B|------------|-
G|------------|-
D|-8-8----8-8-|-
A|-6-6----6-6-|-
D|------------|-

Stave 5:

E|-----0-------|-
B|-----0-------|-
G|-----0-------|-
D|-7-3-0-3-6---|-
A|-7-3---3-6-0-|-
D|-7\3---3/6-0-|-

Stave 6:

E|------------|-
B|------------|-
G|------------|-
D|-6-6----6-6-|-
A|-6-6----6-6-|-
D|-6-6----6-6-|-

Stave 7:

E|----------------------------------------|-
B|-10-------------------------------------|-
G|----------------------------------------|-
D|-8--------------------------------------|-
A|----------------------------------------|-
D|----------------------------------------|-

Stave 8:

E|-------------------------------------|-
B|-------------------------------------|-
G|-------------------------------------|-
D|-9-------8---9-------8---9-------8---|-
A|---7-7-7---7---7-7-7---7---7-7-7---7-|-
D|-------------------------------------|-

Stave 9:

E|-------------------------------|-
B|-------------------------------|-
G|-------------------------------|-
D|-1---1-1---1---1-1---1---1-1---|-
A|-0-0-0-0-0-0-0-0-0-0-0-0-0-0-0-|-
D|-1-0-1-1-0-1-0-1-1-0-1-0-1-1-0-|-

Stave 10:

E|-------------|-
B|-------------|-
G|-------------|-
D|-------------|-
A|-------------|-
D|-7----3----6-|-

Stave 11:

E|-----------------------------------------|-
B|-----------------------------------------|-
G|-9-9-9-9-9-9-9-9-9-9-9-9-9-9-9-9-9-9-9-9-|-
D|-8-8-8-8-8-8-8-8-8-8-8-8-8-8-8-8-8-8-8-8-|-
A|-7-7-7-7-7-7-7-7-7-7-7-7-7-7-7-7-7-7-7-7\|-
D|-----------------------------------------|-

Stave 12:

E|------------------------------------|-
B|------------------------------------|-
G|-9----9-9-9-9----9-9-9-9----9-9-9-9-|-
D|-8----8-8-8-8----8-8-8-8----8-8-8-8-|-
A|-7----7-7-7-7----7-7-7-7----7-7-7-7\|-
D|------------------------------------|-

Stave 13:

E|-------------|-
B|-------------|-
G|-------------|-
D|-1---1-1---1-|-
A|-0-0-0-0-0-0-|-
D|-1-0-1-1-0-1-|-

Stave 14:

E|-------------------|-
B|-------------------|-
G|-----------9-------|-
D|-1---1-1---8-------|-
A|-0-0-0-0-0-7-------|-
D|-1-0-1-1-0---------|-

Stave 15:

E|--------------|-
B|--------------|-
G|--------------|-
D|--------------|-
A|--------------|-
D|-7-7-3-3-6----|-

Stave 16:

E|-------------|-
B|-------------|-
G|-------------|-
D|-------------|-
A|-------------|-
D|-7-7-3-3-6-6-|-

Stave 17:

E|-------------------------|-
B|-------------------------|-
G|-------------------------|-
D|-------------------------|-
A|-------------------------|-
D|-7-7-3-3-6-6-7-7-3-3-6-6-|-

Stave 18:

E|-----------0-|-
B|-10--------0-|-
G|-----------0-|-
D|-8---------0-|-
A|-------------|-
D|----5/17\0---|-

Stave 19:

E|-------------------------------------|-
B|-------------------------------------|-
G|-------------------------------------|-
D|-1-1---1-1---1-1---1-1---1-1---1-1---|-
A|-0-0-0-0-0-0-0-0-0-0-0-0-0-0-0-0-0-0-|-
D|-1-1-0-1-1-0-1-1-0-1-1-0-1-1-0-1-1-0-|-

Stave 20:

E|-------------------------------------------------|-
B|-------------------------------------------------|-
G|-------------------------------------------------|-
D|-1-1---1-1---1-1---1-1---1-1---1-1---1-1---1-1---|-
A|-0-0-0-0-0-0-0-0-0-0-0-0-0-0-0-0-0-0-0-0-0-0-0-0-|-
D|-1-1-0-1-1-0-1-1-0-1-1-0-1-1-0-1-1-0-1-1-0-1-1-0-|-

Stave 21:

E|-------------|-
B|-------------|-
G|-9-9-9-9-9-9-|-
D|-8-8-8-8-8-8-|-
A|-7-7-7-7-7-7-|-
D|-------------|-

Stave 22:

E|----------0-|-
B|----------0-|-
G|-9--------0-|-
D|-8--------0-|-
A|-7----------|-
D|---5/17\0---|-

http://www.guitartabcreator.com
Guitar Tab Creator is intended to store guitar tab created through the tool. It currently does not support in-line text editing. Any text you place in here will be lost. If you need to comment on your tab, please use the "Tab Notes" section located below.