Sound will begin in 5 seconds

Every Time I Die- Map Change

Chords
01234567891011121314151617181920212223
E
B
G
D
A
E
B
0 1 2 3 4 5 6 7 8 9 10 11 12 13 14 15 16 17 18 19 20 21 22 23
Song Science #1: How Pros Use 6 Chords to Write Hit Songs
(/) Slide Up  (\) Slide Down  (h) Hammer On  (p) Pull Off  (b) Bend (r) Release (v) Vibrato

Stave 1:

D|----------------------------------------------------------------------------------------------------|-
A|----------------------------------------------------------------------------------------------------|-
F|-12-12-12-12-12-12-12-12-12-12-12-12-12-12-12-12-12-12-12-12----12----12----12-12-12-12-12-12-12-12-|-
C|-9--9--9--9--9--9--9--9--9--9--9--9--9--9--9--9--9--9--9--9-----9-----9-----9--9--9--9--9--9--9--9--|-
G|-10-10-10-10-10-10-10-10-10-10-10-10-10-10-10-10-10-10-10-10----10----10----10-10-10-10-10-10-10-10-|-
C|-------------------------------------------------11-11-11-11----11----11----11-11-11-11-11-11-11-11-|-

Stave 2:

D|----------------------------------------------------------------------|-
A|----------------------------------------------------------------------|-
F|-7-7-7-7-7-7-7-7-7-7-7-7-7-7-7-7-7-7-7-7----7----7----7-7-7-7-7-7-7-7-|-
C|-9-9-9-9-9-9-9-9-9-9-9-9-9-9-9-9-9-9-9-9----9----9----9-9-9-9-9-9-9-9-|-
G|-9-9-9-9-9-9-9-9-9-9-9-9-9-9-9-9-8-8-8-8----8----8----8-8-8-8-8-8-8-8-|-
C|----------------------------------------------------------------------|-

Stave 3:

D|-------------------------|-
A|-------------------------|-
F|-------------------------|-
C|-9----9----7----6--------|-
G|-9----8----5----4----5-2-|-
C|---------------------5-2-|-

Stave 4:

D|--------------------------|-
A|--------------------------|-
F|--------------------------|-
C|-9----9----7----6---------|-
G|-9----8----5----4----2----|-
C|---------------------2----|-

Stave 5:

D|-------------------------------------------------------------------|-
A|-------------------------------12------------------10--------------|-
F|---0-------------0-------------------------11-----------------9----|-
C|-----0-4r0---------0-2-0----------9------0------------7-----0------|-
G|------------------------------------9-10----------------7-9--------|-
C|-5---------5h7-2---------5-7-9-------------------7-----------------|-

Stave 6:

D|----------------------------------------------------------------------|-
A|----------------------------------12-----------12------10-------------|-
F|---0--------------0-----9-7-0--------11-------------------9-----------|-
C|-----0-4b5-4--------0---------7/9-------9----9-------7------7---0-----|-
G|------------------------------------------10------------------9---7\5-|-
C|-5--------------2-----2-----------------------------------------------|-

Stave 7:

D|---------------------------------------------|-
A|---------------------------------------------|-
F|---------------------------------------------|-
C|-5-5-5-5----2-2-2-2----9-9-9-9----7-7-7-7----|-
G|-5-5-5-5----2-2-2-2----9-9-9-9----7-7-7-7----|-
C|-5-5-5-5----2-2-2-2----9-9-9-9----7-7-7-7----|-

Stave 8:

D|---------------------------------------------------|-
A|---------------------------------------------------|-
F|---------6b7-6-------------------------------------|-
C|-5-5-5-5----------2-2-2-2----9-9-9-9----7-7-7-7----|-
G|-5-5-5-5----------2-2-2-2----9-9-9-9----7-7-7-7----|-
C|-5-5-5-5----------2-2-2-2----9-9-9-9----7-7-7-7----|-

Stave 9:

D|-------------------------------------------------------------------------------------|-
A|-------------------------------------------------------------------------------------|-
F|-12-12-12----12-12-12----12-12-12-12-12-12-12-12-12----12-12-12----12-12-12-12-12-12-|-
C|-9--9--9-----9--9--9-----9--9--9--9--9--9--9--9--9-----9--9--9-----9--9--9--9--9--9--|-
G|-10-10-10----10-10-10----10-10-10-10-10-10-10-10-10----10-10-10----10-10-10-10-10-10-|-
C|-------------------------------------------11-11-11----11-11-11----11-11-11-11-11-11-|-

Stave 10:

D|-------------------------------------------------------------|-
A|-------------------------------------------------------------|-
F|-7-7-7----7-7-7----7-7-7-7-7-7-7-7-7----7-7-7----7-7-7-7-7-7-|-
C|-9-9-9----9-9-9----9-9-9-9-9-9-9-9-9----9-9-9----9-9-9-9-9-9-|-
G|-9-9-9----9-9-9----9-9-9-9-9-9-8-8-8----8-8-8----8-8-8-8-8-8-|-
C|-------------------------------------------------------------|-

Stave 11:

D|----------------------------------------------------------------------|-
A|----------------------------------------------------------------------|-
F|------------2--------2-------------------------2----------------------|-
C|-3h4----4-4------4-4------4-4-0-0-0-3h4----4-4------4-4-4-----3-------|-
G|----------------------------------------------------------5p0---4p0-5-|-
C|----------------------------------------------------------------------|-

Stave 12:

D|---------------------------------------------------------------------------|-
A|---------------------------------------------------------------------------|-
F|---------------------------------------------------------------------------|-
C|---------------------------------------------------------------------------|-
G|---------------------------------------------------------------------------|-
C|-0-12-9-0-12-9-0-12-9-0-12-9-0-12-9-0-0-8-11-0-8-11-9-0-11-9-0-11-9-0-11-9-|-

Stave 13:

D|-----------------------------------------------------------------|-
A|-----------------------------------------------------------------|-
F|-----------------------------------------------------------------|-
C|-----------------------------------8----7----7----7----6---------|-
G|------------------------------10-7-9----9----8----5----4----5----|-
C|-0-12-9-0-15-11-14-0-5-11-8-0-------------------------------5----|-

Stave 14:

D|---------------------------|-
A|---------------------------|-
F|---------------------------|-
C|-7----7----7----6----12----|-
G|-9----8----5----4----10----|-
C|---------------------------|-

Stave 15:

D|-----------------------------------------------------------------|-
A|-----------------------------------------------------------------|-
F|-----------------------------------------------------------------|-
C|-5-5-5-5-5-5-5-5-2-2-2-2-2-2-2-2-9-9-9-9-9-9-9-9-7-7-7-7-7-7-7-7-|-
G|-5-5-5-5-5-5-5-5-2-2-2-2-2-2-2-2-9-9-9-9-9-9-9-9-7-7-7-7-7-7-7-7-|-
C|-5-5-5-5-5-5-5-5-2-2-2-2-2-2-2-2-9-9-9-9-9-9-9-9-7-7-7-7-7-7-7-7-|-

http://www.guitartabcreator.com
Guitar Tab Creator is intended to store guitar tab created through the tool. It currently does not support in-line text editing. Any text you place in here will be lost. If you need to comment on your tab, please use the "Tab Notes" section located below.